tablaturas, partituras y acordes para guitarra
Busca por banda/artista:
 
y/o título de la canción:
A B C D E F G H I J K L M N O P Q R S T U V W X Y Z 0 1 2 3 4 5 6 7 8 9 / Top 100 tabs
Categorías
Usuarios
usuario:
Darse de alta
password:
Artistas más visitados
Publicidad
TOP acordes y tablaturas de Incubus


Estás en: Inicio > Letra I > Acordes y tablaturas de Incubus > A crow left of the murder
A crow left of the murder
de Incubus
Puntúa este acorde/tab:      
(0.1/5)
Reportar este acorde/tab
  Añadir a tus favoritos
  Imprimir
Tuning: Standard



Tabbed from the Bridge School Benefit show performance

Note: Rhythm not shown, except on intro/main riff

Intro/Main Riff

E|---------------------------------||
B|---------------------------------||
G|-------4~-1---1------------------||
D|------------4--------------------||
A|------------------------2--------||
E|-0-2-4------------0-2-4---4-2-4--|| x2

E|---------------------------------||
B|-------4~-----4------------------||
G|----------1----------------------||
D|------------4--------------------||
A|------------------------2--------||
E|-0-2-4------------0-2-4---4-2-4--|| x1

E|---------------------------------||
B|---------------------------------||
G|-------4~-1---1------------------||
D|------------4--------------------||
A|------------------------2--------||
E|-0-2-4------------0-2-4---4-2-4--|| x1

Chorus:

E|-3------------5------7-----------||
B|-3------------5------7-----------||
G|-4------------7------8-----------||
D|-5------------7------7-----------||
A|-5------------5------9-----------||
E|-3------------5------7-----------||

Bridge (No Vocals):
This part is iffy because of the recording, but it's close.
Apply tremolo picking at will

E|---------------------------------||
B|---------------------------------||
G|-4-4-4-4-4-4---7-7-7-7-7-7-------||
D|-0-0-0-0-0-0---0-0-0-0-0-0-------||
A|---------------------------------||
E|---------------------------------||

E|---------------------------------||
B|---------------------------------||
G|-4-4-4-4-4-4---5-4-5-4-5-4-------||
D|-0-0-0-0-0-0---0-0-0-0-0-0-------||
A|---------------------------------||
E|---------------------------------||

E|---------------------------------||
B|---------------------------------||
G|-4-4-4-4-4-4---7-7-7-7-7/9-------||
D|-0-0-0-0-0-0---0-0-0-0-0-0-------||
A|---------------------------------||
E|---------------------------------||

E|---------------------------------||
B|---------------0-0-0-0-0-0-------||
G|-4-4-4-4-4-4---5-4-5-4-5-4-------||
D|-0-0-0-0-0-0---0-0-0-0-0-0-------||
A|---------------------------------||
E|---------------------------------||

Bridge (Vocals):
Still iffy, still tremolo

E|---------------------------------||
B|-0-0-0-0-0-0---0-0-0-0-0-0-------||
G|-4-4-4-4-4-4---7-7-7-7-7/9-------||
D|-0-0-0-0-0-0---0-0-0-0-0-0-------||
A|---------------------------------||
E|---------------------------------||

E|---------------------------------||
B|-0-0-0-0-0-0---0-0-0-0-0-0-------||
G|-4-4-4-4-4-4---5-4-5-4-5-4-------||
D|-0-0-0-0-0-0---0-0-0-0-0-0-------||
A|---------------------------------||
E|---------------------------------||

E|---------------------------------||
B|-0-0-0-0-0-0---0-0-0-0-0-0-------||
G|-4-4-4-4-4-4---7-7-7-7-7/9-------||
D|-0-0-0-0-0-0---0-0-0-0-0-0-------||
A|-2-2-2-2-2-2---5-5-5-5-5-7-------||
E|---------------------------------||

E|---------------------------------||
B|-0-0-0-0-0-0---0-0-0-0-0-0-------||
G|-4-4-4-4-4-4---5-4-5-4-5-4-------||
D|-0-0-0-0-0-0---0-0-0-0-0-0-------||
A|-2-2-2-2-2-2---3-2-3-2-3-2-------||
E|---------------------------------||

E|-0-0-0-0-0-0---0-0-0-0-0-0-------||
B|-0-0-0-0-0-0---0-0-0-0-0-0-------||
G|-4-4-4-4-4-4---7-7-7-7-7-7-------||
D|-0-0-0-0-0-0---0-0-0-0-0-0-------||
A|-2-2-2-2-2-2---5-5-5-5-5-5-------||
E|---------------------------------||

E|-0-0-0-0-0-0---0-0-0-0-0-0-------||
B|-0-0-0-0-0-0---0-0-0-0-0-0-------||
G|-4-4-4-4-4-4---5-4-5-4-5-4-------||
D|-0-0-0-0-0-0---0-0-0-0-0-0-------||
A|-2-2-2-2-2-2---3-2-3-2-3-2-------||
E|---------------------------------||

E|-0-0-0-0-0-0---0-0-0-0-0-0-------||
B|-0-0-0-0-0-0---0-0-0-0-0-0-------||
G|-4-4-4-4-4-4---7-7-7-7-7-7-------||
D|-0-0-0-0-0-0---0-0-0-0-0-0-------||
A|-2-2-2-2-2-2---5-5-5-5-5-5-------||
E|---------------------------------||

E|-0-0-0-0-0-0---0-0-0-0-0-0-------||
B|-0-0-0-0-0-0---0-0-0-0-0-0-------||
G|-4-4-4-4-4-4---5-4-5-4-5-4-------||
D|-0-0-0-0-0-0---0-0-0-0-0-0-------||
A|-2-2-2-2-2-2---3-2-3-2-3-2-------||
E|---------------------------------||

Slightly different main riff at the end:
You'll hear this on the last part of each go around of
the main riff right after the bridge (two times), then
all the way up near the end.

E|---------------------------------||
B|-------4~-----4------------------||
G|----------1----------------------||
D|------------4-----------4-4-4-2--||
A|------------------------4-4-4-2--||
E|-0-2-4------------0-2-0-2-2-2-0--||

Little Ending Riff:
I think you'll be able to pick out where this is, gradually
build it into a chord made up of those three notes

E|---------------------------------||
B|-----4-----4-----4-----4---------||
G|-1-----1-----1-----1-------------||
D|---4-----4-----4-----4-----------||
A|---------------------------------||
E|---------------------------------||

Ending:
Just in case

E|---------------------------------||
B|---------------------------------||
G|---------------------------------||
D|-------4-4-4-2-------------------||
A|-------4-4-4-2-------------------||
E|-0-2-0-2-2-2-0-------------------||		   
AcordesyTabs.com © 2008 Acordes y Tablaturas para guitarra. Tabs and Chords for guitar. Aviso Legal - Contacto
El uso de este sitio está sujeto a la aceptación de los términos y condiciones (26 usuarios online)