tablaturas, partituras y acordes para guitarra
Busca por banda/artista:
 
y/o título de la canción:
A B C D E F G H I J K L M N O P Q R S T U V W X Y Z 0 1 2 3 4 5 6 7 8 9 / Top 100 tabs
Categorías
Usuarios
usuario:
Darse de alta
password:
Artistas más visitados
Publicidad
TOP acordes y tablaturas de Metallica


Estás en: Inicio > Letra M > Acordes y tablaturas de Metallica > No Leaf Clover Intro
No Leaf Clover Intro
de Metallica
Puntúa este acorde/tab:      
(0.1/5)
Reportar este acorde/tab
  Añadir a tus favoritos
  Imprimir
this is the way i play No Leaf Clover and it sounds right. if u wanna email me t
http://www.geocities.com/billybobjoe70



HERES THE INTRO TO NO LEAF CLOVER:

---7---7----8---8----7---7----8----8-----------------------------------
---8---8---10--10----7---7---10---10-----------------------------------
----9---9-----9---9----8---8----9----9---------------------------------
-----------------------------------------------------------------------
-----------------------------------------------------------------------
-----------------------------------------------------------------------


---7---7----8---8----7---7---------------------------------------------
---8---8---10--10----7---7---------------------------------------------
----9---9-----9---9----8---8---8/9-10------8/9--10---------------------
-----------------------------------------------------------------------
-----------------------------------------------------------------------
-----------------------------------------------------------------------
		   
AcordesyTabs.com © 2008 Acordes y Tablaturas para guitarra. Tabs and Chords for guitar. Aviso Legal - Contacto
El uso de este sitio está sujeto a la aceptación de los términos y condiciones (80 usuarios online)