tablaturas, partituras y acordes para guitarra
Busca por banda/artista:
 
y/o título de la canción:
A B C D E F G H I J K L M N O P Q R S T U V W X Y Z 0 1 2 3 4 5 6 7 8 9 / Top 100 tabs
Categorías
Usuarios
usuario:
Darse de alta
password:
Artistas más visitados
Publicidad
TOP acordes y tablaturas de The strokes


Someday
de The strokes
Puntúa este acorde/tab:      
(0.4/5)
Reportar este acorde/tab
  Añadir a tus favoritos
  Imprimir
Acordes:

    EBGDAE
A:  556775
Bm: 777997
E:  79997X
D:  57775X
Dbm:46664X
E:  001220


Verso:

   
E|-5---7------5---7------9---7------7---5----|
B|-5---5------7---7------7---7------7---5----|
G|-6---6------7---7------7---7------7---6----|
D|-------------------------------------------|
A|-------------------------------------------|
E|-------------------------------------------|

a guitarra base acompanha com os acordes A (1x) e Bm (2x) 

Refrão:

   D                                    Am

E|-9-12-9------7-10-7-9------------7-----5-------|
B|---------------------------------7-----5-------|
G|---------------------------------7-----6-------|
D|---------------------------------7-----7-------|
A|-----------------------------------------------|
E|-----------------------------------------------|

aqui a guitarra base acompanha com os acordes E (agudo), D, Dbm e A (2x)e termina com E 2x (grave)

Na paradinha o baixo faz:

E|-------------------------|
B|-------------------------|
G|-------------------------|
D|-------------------------|
A|-------------5-5---------|
E|-5-5---7-7---------5-5---|


Verso

Refrão

A música termina com A		   
AcordesyTabs.com © 2008 Acordes y Tablaturas para guitarra. Tabs and Chords for guitar. Aviso Legal - Contacto
El uso de este sitio está sujeto a la aceptación de los términos y condiciones (38 usuarios online)