tablaturas, partituras y acordes para guitarra
Busca por banda/artista:
 
y/o título de la canción:
A B C D E F G H I J K L M N O P Q R S T U V W X Y Z 0 1 2 3 4 5 6 7 8 9 / Top 100 tabs
Categorías
Usuarios
usuario:
Darse de alta
password:
Artistas más visitados
Publicidad
TOP acordes y tablaturas de Metallica


Estás en: Inicio > Letra M > Acordes y tablaturas de Metallica > No Leaf Clover Intro
No Leaf Clover Intro
de Metallica
Puntúa este acorde/tab:      
(0.3/5)
Reportar este acorde/tab
  Añadir a tus favoritos
  Imprimir
I don't wast to tab the whole song so here's the intro to No Leaf Clover

         p.m--------------|               p.m.------------|               p.m.--
--------------------------------------------------------------------------------
--------------------------------------------------------------------------------
--------------------------------------------------------------------------------
-9-9-9---9---9-7-9---9-7-9-12-----9-9-9---9---9-7-9---9-7-9-9-----9-9-9---9---9-
-7-7-7---7---7-5-7---7-5-7-10-----7-7-7---7---7-5-7---7-5-7-------7-7-7---7---7-
------------------------------------------------------------7-------------------

-0-3---0-3---
-0-1---0-1---
-------------
-------------
-------------
-------------

thats it and i know its 100% correct because i have the tab book
		   
AcordesyTabs.com © 2008 Acordes y Tablaturas para guitarra. Tabs and Chords for guitar. Aviso Legal - Contacto
El uso de este sitio está sujeto a la aceptación de los términos y condiciones (33 usuarios online)