tablaturas, partituras y acordes para guitarra
Busca por banda/artista:
 
y/o título de la canción:
A B C D E F G H I J K L M N O P Q R S T U V W X Y Z 0 1 2 3 4 5 6 7 8 9 / Top 100 tabs
Categorías
Usuarios
usuario:
Darse de alta
password:
Artistas más visitados
Publicidad
TOP acordes y tablaturas de Megadeth


Estás en: Inicio > Letra M > Acordes y tablaturas de Megadeth > Motopsycho
Motopsycho
de Megadeth
Puntúa este acorde/tab:      
(0.5/5)
Reportar este acorde/tab
  Añadir a tus favoritos
  Imprimir
Riff 1

  PM------|   PM------|   PM------|
|-----------------------------------------------|
|-----------------------------------------------|
|-----------------------------------------------|
|-----------------------------------------------|
|---------------------------------------1---3-1-|
|-0-1-3-3-3-3-0-1-3-3-3-3-0-1-3-3-3-3-0---3-----|


Riff 2

  D#5                             C5
 4/4
|-------------------------------------------------|
|-------------------------------------------------|
|-------------------------------------------------|
|-8-------8-------8-------8-------5-------5-------|
|-6-6-6-6-6-6-6-6-6-6-6-6-6-6-6-6-3-3-3-3-3-3-3-3-|
|-------------------------------------------------|


          D5
|--------------------|
|--------------------|
|--------------------|
|-5-------7----------|
|-3-3-3-3-5-5-5-5----|
|--------------------|


Riff 3

                      D#5       G5C5Ab5
|-------------------------------------|
|-------------------------------------|
|-------------------------------------|
|-------------------------------------|
|---------------------8---------5-8-3-|
|-3-3-3-3-3-3-3-3-3-3S6-3-3-3-3-3S6S1-|


Fill 1

  G5F#F5A#F5
|--------------*|
|--------------*|
|--------------*|
|-------3------*|
|-5-4-3-1-3----*|
|-3-2-1---1----*|


Song Order

Riff 1		x 8
Riff 2		x 1
Riff 1		x 2 with Lead Break
Riff 2		x 1
Riff 3		x 4
Fill
Riff 1		x 4
Riff 2		x 1
Riff 1		x 2 with Lead Break
Riff 2		x 1
Riff 3		x 4
Riff 1		x 2
Riff 2		x 1
Riff 3		x 12 till fade		   
AcordesyTabs.com © 2008 Acordes y Tablaturas para guitarra. Tabs and Chords for guitar. Aviso Legal - Contacto
El uso de este sitio está sujeto a la aceptación de los términos y condiciones (30 usuarios online)