tablaturas, partituras y acordes para guitarra
Busca por banda/artista:
 
y/o título de la canción:
A B C D E F G H I J K L M N O P Q R S T U V W X Y Z 0 1 2 3 4 5 6 7 8 9 / Top 100 tabs
Categorías
Usuarios
usuario:
Darse de alta
password:
Artistas más visitados
Publicidad
TOP acordes y tablaturas de Megadeth


Estás en: Inicio > Letra M > Acordes y tablaturas de Megadeth > Train of cosequences
Train of cosequences
de Megadeth
Puntúa este acorde/tab:      
(0.4/5)
Reportar este acorde/tab
  Añadir a tus favoritos
  Imprimir
Eb Tuning

Intro: The trick is to rest either 3 or 4 of your fingers over the 3rd fret.
------
Fig 1
||-----------------------------------|
||-----------------------------------|
||*----------------------------------|
||*--x-x---x---x-x-x---x---x-2^0-----|
||---x-x---x---x-x-x---x---------2^0-|
||---x-x---x---x-x-x---x-------------|

|----------------------------------------|----------------------------|
|----------------------------------------|----------------------------|
|----------------------------------------|----------------------------|
|----x-x---x---x-x-x---x---x-x-x-x-x-x-x-|x-x---x---x-x-x---x-2^0-----|
|----x-x---x---x-x-x---x---x-x-x-x-x-x-x-|x-x---x---x-x-x---------2^0-|
|----x-x---x---x-x-x---x---x-x-x-x-x-x-x-|x-x---x---x-x-x-------------|

                         end Rhy.Fig.1
|------------------------------------||
|------------------------------------||
|-----------------------------------*||
|----x-x---x---x-x-x---x---x-8--(8)*||
|----x-x---x---x-x-x---x---x-8--(8)-||
|----x-x---x---x-x-x---x---x-6--(6)-||
                                          

Pre-chorus
    let ring.......|           let ring......|  P.M.....|
|-----------------------------|-----------------------------|
|-----------------------------|-----------------------------|
|-----------------------------|-----------------------------|
|-------------4---------------|---------4-------------------|
|---------4-------------------|-----4-----------------------|
|----2-------------2--3^2-0---|2----------2-----2-2-3-2-0---|
                   In for the     kill

    let ring.........|          let ring|
|---------------------------------|---------------------------|
|---------------------------------|---------------------------|
|--------------6------------------|----4----------------------|
|---------6-----------------------|----4-----------2----------|
|----4---------------4----5^4^0-2-|(2)---5-4-2-0---0--5-4-0---|
|---------------------------------|---------------------------|
               Ooh   and you know I will          ooh.

Chorus: Fig 2
-------
'Set the ball a rollin...'
||--------------------------------|--------------------------------|
||------------5-------------------|------------5-------------------|
||----------------7-----------7---|----------------7-----------7---|
||------6---------------6---------|------7---------------7---------|
||7-------------------------------|5-------------------------------|
||--------------------------------|--------------------------------|

                                                             Play 2x
|--------------------------------|--------------------------------||
|--------------------------------|--------------------------------||
|--------------------------------|--------------------------------||
|--------------------------------|--------------------------------||
|------7----10---------9-----12--|------7----10---------4-----7---||
|8---------------10--------------|8---------------5---------------||


Lead Solo:
----------

Backing for the solo:
||--------------------------------|----------------------------------|
||--------------------------------|----------------------------------|
||--------------------------------|----------------------------------|
||--------------------------------|----------------7---7-7-7-7-6-5---|
||5h7-x-x-8-7-5-7---------5---7---|3h5-------3/5-------------------7-|
||----0-0-----------7~------------|----0h3h5-------------------------|
      . .
                                  * Marty Starts Here!
|--------------------------------|--------------------------------||
|--------------------------------|--------------------------------||
|--------------------------------|---------------------------2----||
|--------------2-------------2---|----------------2---------------||
|3---x-x-3p0---0---2---------0---|--3---x-x-3p0---0------3^-------||
|------------3-----0-----3-------|--------------3-----3^----------||

Guitar solo                                            
|--------------------------------|-----------------------------12-------|
|--------------------------------|12~~~~~~~~~~~15b17--(15)~~~~~---15-12-|
|--------------------------------|--------------------------------------|
|--------------------------------|--------------------------------------|
|--------------------------------|--------------------------------------|
|--------------------------------|--------------------------------------|

|----------------------12-------|------------------------------------------|
|----15b17~~~~~~~~~~~~~---14^12-|------------------------------14-12-------|
|-------------------------------|14b16--(16)r(14)^12-14~~~~~~~~------14-12-|      
|-------------------------------|------------------------------------------|
|-------------------------------|------------------------------------------|
|-------------------------------|------------------------------------------|

|--------------------------|------------------------------------0-0-|
|--------------------------|------------------------------------0-0-|
|--------------------------|----------------------------------------|
|---12^14~~~~~~~~~12----|----------------------------------------|
|--------------------------|12^10^12^10-12^13^12^10-----------------|
|--------------------------|------------------------12~~~(12)------|

|---0---0-0-0---0-0-0---0-0-0---0-0-|0---10-----10-----10-10/12-10----------|
|---5---5-5-3---3-3-5---5-5/8---8-8/|10----10-----10---------------12-11-10-|
|-----------------------------------|---------------------------------------|
|-----------------------------------|---------------------------------------|
|-----------------------------------|---------------------------------------|
|-----------------------------------|---------------------------------------|

|----------------------------------------|
|----------------------------------------|
|---12/////(12)x/12-14-15-16-15-14-|
|----------------------------------------|
|----------------------------------------|
|----------------------------------------|

|-------------------------------------------------------------------|
|-------------------------------------------------------------------|
|-12-14-15-16-15-14-12-----14b16r14^12----14-12~~~~~~~~~~~~12-14b16-|
|-----------------------14-------------14---------------------------|
|-------------------------------------------------------------------|
|-------------------------------------------------------------------|

|---------------------12----------------------12-------------------|
|------12-15-------12----------12-15-------12----------12-15-------|
|--(16)------14b16-------14b16-------14b16-------14b16-------14b16-|
|------------------------------------------------------------------|
|------------------------------------------------------------------|
|------------------------------------------------------------------|

|-------12----------------12-------------15b17~~~~~~~~~~15-14--|
|-12^15----15-12----12^15----15-12----12-----------------------|
|----------------14----------------14--------------------------|
|--------------------------------------------------------------|
|--------------------------------------------------------------|
|--------------------------------------------------------------|

|---15~~~~15~~~~~~(15)---------|---------14-15--17^15-14--15--17--19^17-15-
|-------------------------------|------17-----------------------------------
|-------------------------------|---16--------------------------------------
|-------------------------14-16-|17-----------------------------------------
|-------------------------------|-------------------------------------------
|-------------------------------|-------------------------------------------

-17--19-20--22-|
---------------|
---------------|
---------------|
---------------|
---------------|

=>chorus
  w/Rhy.Fig.2 (4 times)


=>Outro
  w/Rhy.Fig.1		   
AcordesyTabs.com © 2008 Acordes y Tablaturas para guitarra. Tabs and Chords for guitar. Aviso Legal - Contacto
El uso de este sitio está sujeto a la aceptación de los términos y condiciones (13 usuarios online)