tablaturas, partituras y acordes para guitarra
Busca por banda/artista:
 
y/o título de la canción:
A B C D E F G H I J K L M N O P Q R S T U V W X Y Z 0 1 2 3 4 5 6 7 8 9 / Top 100 tabs
Categorías
Usuarios
usuario:
Darse de alta
password:
Artistas más visitados
Publicidad
TOP acordes y tablaturas de Angra


Estás en: Inicio > Letra A > Acordes y tablaturas de Angra > Running alone
Running alone
de Angra
Puntúa este acorde/tab:      
(0.4/5)
Reportar este acorde/tab
  Añadir a tus favoritos
  Imprimir
CORO: ( Bb F Gm Eb C Gm D Bb Eb C Gm Bb F )2x
When the brave fought
On the land of freedom for the men
Now the bells of hope are ringing
Angels cry again
intro: Kiko loureiro

e | ---------------------14~--15------15-18-17-----22~-- | -13-12-13-10----------------10
B | -11------11-15-13-----------16--16--------19-------- | ------------11------------11--
G | ---12--12--------14-----------17------------19------ | --------------10--------10----
D | -----12------------14------------------------------- | ----------------12-10-12------
A | ---------------------------------------------------- | ------------------------------
E | ---------------------------------------------------- | ------------------------------

e | -13-12-13-10----------------10-13-10----12-10----13-12-13-8---------------8-13-12-13
B | ------------11------------11--------11-------11------------10-8-------8-10----------
G | --------------10--------10------------10-------10--------------10-9-10--------------
D | ----------------12-10-12------------------------------------------------------------
A | ------------------------------------------------------------------------------------
E | ------------------------------------------------------------------------------------

e | -8---------------8-12-8----13-8----15-14-15-10------10-15-14-15-10------10
B | --10-8-------8-10------10-8----10-8-----------11--11--------------11--11--
G | ------10-9-10-----------------------------------12------------------12----
D | --------------------------------------------------------------------------
A | --------------------------------------------------------------------------
E | --------------------------------------------------------------------------

e | -15-14-13-12-11--------10-------------------------------------------------------- | 
B | ---------------14-13-12--14-13-12-11-14-13-11---10~--11~--15~--14~--15~--17--17b- | 
G | --------------------------------------------------------------------------------- | 
D | --------------------------------------------------------------------------------- | 
A | --------------------------------------------------------------------------------- | 
E | --------------------------------------------------------------------------------- | 

intro: Rafael Bittencourt

e | -10------10-15-14----17~--11------11-15-14----17~-- | -18-17-18-13---------------13-18
B | ---11--11--------15---------13--13--------15------- | ------------15-----------15-----
G | -----12------------14---------12------------14----- | --------------15--------15------
D | --------------------------------------------------- | ----------------15-14-15--------
A | --------------------------------------------------- | --------------------------------
E | --------------------------------------------------- | --------------------------------

e | -17-18-13----------------13-18-13----17-13----17-15-17-13-----------------13-17-15-17
B | ---------15------------15--------15-------15-------------13--------------13----------
G | -----------15--------15------------14-------15-------------15-14-12-14-15------------
D | -------------15-14-15----------------------------------------------------------------
A | -------------------------------------------------------------------------------------
E | -------------------------------------------------------------------------------------

e | ------------------13-17-13----18-17-18-15-------15-18-17-18-15-----15-
B | -13--------------13-------13--------------15--15--------------15--15--
G | ---15-14-12-14-15-----------15--------------15------------------15----
D | ----------------------------------------------------------------------
A | ----------------------------------------------------------------------
E | ----------------------------------------------------------------------

e | -18-17-16-15-14--------15-------------------------------------------------------- | 
B | ---------------18-17-16--19-18-17-16-19-18-16---13~--15~--18~--17~--18~--20--20b- | 
G | --------------------------------------------------------------------------------- | 
D | --------------------------------------------------------------------------------- | 
A | --------------------------------------------------------------------------------- | 
E | --------------------------------------------------------------------------------- | 
D5 E5 F5 C5  D5 C5 G5 F5  D5 E5 F5 C5  D5 C5 Bb5  (4X)

    D5                         C5
The goddess of wind was mad, oh no!
               A5   
Spreading the fire
D5                           C5
Rushing our destiny (and) from now
           A5
Dividing us all.
D5              Bb5 
Visions of steady land
F5            G5
Cheering the sight
D        Bb5                   D# D
Orders to wait until the night


G5        Eb5
Answer me,
     Bb5             F5
What happned to your life?
G5     Eb5              Bb5   F
Answer me, what do you hide? 


D5                               C5
The storm made us angry, I don't know!
              A5
Spreading the fear
D5                           C5
Old friends like enemys, be strong!
                A5
And hide all your tears
D5            Bb5
Revolting the high command
F5           G5
Don't let it drown
D5           Bb5            G5       D#  D
Captain took off before the dawn.


G5     Eb5
Answer me,
     Bb5               F5
What happened to your life?
G5      Eb5             Bb5  F
Answer me, what do you hide?
G5           Eb5
Can't you see
   Bb5             F5
Salvation without fight?
G5              Eb5
Can't you see it?
  Bb5            F5
That you are blind


Under the sun
In a solitary world
I am running alone
Scars on my face
Weary hands from digging dirt
I was dying all alone

Am running?
Where am I?
Where has everyone gone this time?
Left my future far behind
I am nothing but the sole survivor

Under the sun I still see this world burning
Scars on my face shows the eyes of a man running 		   
AcordesyTabs.com © 2008 Acordes y Tablaturas para guitarra. Tabs and Chords for guitar. Aviso Legal - Contacto
El uso de este sitio está sujeto a la aceptación de los términos y condiciones (16 usuarios online)