tablaturas, partituras y acordes para guitarra
Busca por banda/artista:
 
y/o título de la canción:
A B C D E F G H I J K L M N O P Q R S T U V W X Y Z 0 1 2 3 4 5 6 7 8 9 / Top 100 tabs
Categorías
Usuarios
usuario:
Darse de alta
password:
Artistas más visitados
Publicidad
TOP acordes y tablaturas de Metallica


Estás en: Inicio > Letra M > Acordes y tablaturas de Metallica > No Leaf Clover
No Leaf Clover
de Metallica
Puntúa este acorde/tab:      
(0.4/5)
Reportar este acorde/tab
  Añadir a tus favoritos
  Imprimir
No Leaf Clover (Live)
Brian S did this for you
Metallica
  
Intro 4x :

   Em        A/E         Bm        A/E 
E--7---7-----8----8------7---7--|--8-----8----|---
B--8---8-----10---10-----7---7--|-10----10----|---
G----9---9------9----9-----8---8|-----9----9--|---
D-------------------------------|-------------|---
A-------------------------------|-------------|---
E-------------------------------|-------------|---
                                  First Time

E|---------------|--------------------------------
B|------10-----10|--------------------------------
G|-8-/9----8/9---|--------------------------------
D|---------------|--------------------------------
A|---------------|--------------------------------
E|---------------|--------------------------------
  second time

This a lot of times
E-----------------------------------------------
B-----------------------------------------------
G-----------------------------------------------
D-----------------------0h2---------------------
A---2---3----2---3--2~--0h2---2---3-2-----------
E-0---0----0---0------------0---0---------------

A bonus : (do this fast its a thing kirk hammett
           does in all his solos)

E-15~p12-14~p12--15~p12--17~p12-----------------
B-----------------------------------------------
G-----------------------------------------------
D-----------------------------------------------
A-----------------------------------------------
E-----------------------------------------------

		   
AcordesyTabs.com © 2008 Acordes y Tablaturas para guitarra. Tabs and Chords for guitar. Aviso Legal - Contacto
El uso de este sitio está sujeto a la aceptación de los términos y condiciones (33 usuarios online)