tablaturas, partituras y acordes para guitarra
Busca por banda/artista:
 
y/o título de la canción:
A B C D E F G H I J K L M N O P Q R S T U V W X Y Z 0 1 2 3 4 5 6 7 8 9 / Top 100 tabs
Categorías
Usuarios
usuario:
Darse de alta
password:
Artistas más visitados
Publicidad
TOP acordes y tablaturas de The strokes


Last nite
de The strokes
Puntúa este acorde/tab:      
(0.4/5)
Reportar este acorde/tab
  Añadir a tus favoritos
  Imprimir
Intro:
GUITARRA 1 - parte 1 - C5
e | ------------------------------------------------ | 
B | ------------------------------------------------ | 
G | ------------------------------------------------ | 
D | ---10---10---10---10--10-10-10-10--10-10-10-10-- | 2x
A | -----------------------X--X--X--X---X--X--X--X-- | 
E | -8----8----8----8------8--8--8--8---8--8--8--8-- | 

parte 2-

guitarra 1: C5
e | --------------- | 
B | --------------- | 
G | --------------- | 
D | -10-10-10-10--- |  16x!!!
A | --X--X--X--X--- | 
E | --8--8--8--8--- | 

guitarra 2:

4 vezes-  C4               C5
e | ------------- |     ------------- | 
B | ------------- |     ------------- | 
G | ------------- |     ------------- | 
D | -10-10-10-10- | 2x  -10-10-10-10- |  2x
A | --8--8--8--8- |     -10-10-10-10- | 
E | --8--8--8--8- |     --8--8--8--8- | 

VERSO:

guitarra 1:
C       X-10-10--9--8--X
Dmin7 (10)-X-10-10-10--X
G       X-10-12-12-12--X
Emin    X----14-12-12--X
F       X--8-10-10-10--X

guitarra 2: 'groove'
C       X--X-(10)--9--8--8
Dmin(7) X--X-(12)-10-10-10
Dmin(9) X--X-(12)-10-10-12
G       X--X--X---12-12-10
Emin(7) X--X--X---12-12-12

RESUMINDO:
C
Last night she said
            Dm  
Oh, Baby, I feel so down
        G
Oh, and turned me off
        Em        Dm
When I feel left out
   C
So I, I turned around
            Dm  
Oh, Baby, I don't care no more
       G
I know this for sure
       Em              Dm
I'm walking out that door


C
Well, I've been in town

For just about fifteen minutes now
            Dm 
Oh, Baby, I feel so down
      G
And I don't know why
        Em           Dm  
I keep walking for miles

REFRÃO: (igual a primeira parte da introdução...)


 F                        G       
But the people they don't understand
 F                          G  
No, girlfriends, they can't understand
 F                         G 
Your grandsons, they won't understand
 F                                G
On top of this I ain't ever gonna understand

SEGUNDO VERSO:
C
Last night she said
            Dm
Oh, Baby, I feel so down
         G
Oh, and turned me off
       Em         Dm 
When I feel left out
   C
So I, I turned around
               Dm
Oh, Baby, I'm gonna be alright
         G
It was a great big lie
      Em           Dm   
As I left that night, yeah


(Solo) C F G
e | ---------------------------------------------
B | -18b20--18b19r18p16----16-18b20--18b19r18p16-
G | ---------------------17----------------------
D | ---------------------------------------------
A | ---------------------------------------------
E | ---------------------------------------------

 ------------
 ----16------
 -17-17------
 -------s/15-
 ------------
 ------------

 ------------------------------------------
 -16----15----------13-13-------13-13------
 ----14----12-15b17-------15b17------------
 -------------------------------------s/15-
 ------------------------------------------
 ------------------------------------------

 -------------------------------------------
 -16----15----------13-13-------13-13-------
 ----14----12-15b17-------15b17-------15----
 -------------------------------------------
 -------------------------------------------
 -------------------------------------------

 -----------------------------
 -----------------------------
 ---8----8----8----8-----8----
 -----10---10---10---10----10-
 -----------------------------
 -----------------------------

 --(8)-(8)-(8)-(8)-(8)-(8)-(8)------------------- | 
 ---8---8---8---8---8---8---8---16-----16---16--- | 
 -10b12-()--b12-()-b12--()--b12-18b20-(20)-(20)-- | 
 ------------------------------------------------ | 
 ------------------------------------------------ | 
 ------------------------------------------------ | 

REFRÃO: (igual a primeira parte da introdução...)

 F                        G       
But the people they don't understand
 F                          G  
No, girlfriends, they can't understand
 F                         G 
Your grandsons, they won't understand
 F                                G
On top of this I ain't ever gonna understand

VERSO:
C
Last night she said
            Dm
Oh, Baby, I feel so down
         G
She had turned me off
        Em       Dm 
When I feel left out
 

   C
So I, I turned around
                   Dm            
Oh, little girl, I don't care no more
       G
I know this for sure
            Em       Dm        Dm
I'm walking out that door, yeah

FINAL:

guitarra 1: C5
e | --------------- | 
B | --------------- | 
G | --------------- | 
D | -10-10-10-10--- |  8x!!!
A | --X--X--X--X--- | 
E | --8--8--8--8--- | 

guitarra 2:

2 vezes-  C4             C5
e | ------------- |     ------------- | 
B | ------------- |     ------------- | 
G | ------------- |     ------------- | 
D | -10-10-10-10- | 2x  -10-10-10-10- |  2x
A | --8--8--8--8- |     -10-10-10-10- | 
E | --8--8--8--8- |     --8--8--8--8- | 

Aí termina tudo e fica só a guitarra 1:
   C5
 | ---------------------------- | 
 | ---------------------------- | 
 | ---------------------------- | 
 | -10-10-10-10--10-10-10-10--- |  2x e fecha com C5
 | --X--X--X--X---X--X--X--X--- | 
 | --8--8--8--8---8--8--8--8--- |  		   
AcordesyTabs.com © 2008 Acordes y Tablaturas para guitarra. Tabs and Chords for guitar. Aviso Legal - Contacto
El uso de este sitio está sujeto a la aceptación de los términos y condiciones (36 usuarios online)