Nothing Else Matters Intro (de Metallica)
(www.acordesytabs.com)
E-----0------0--------0-------7-7----7P------7-8-7-5-S7-5-S2--------2P----------
A----0-0----0-0------0-0-----0----0----0----0--0-0-----------5-5--5-------------
D---0---0--0---0----0---0---0------0----0--0---------------------5--------------
G----------------------------------------------------------------------
B------------------------------------------------------------0-0---------
E-0-------0-----0--0-----0------0---------0---------------------------


E0----------------3p0----------------0h5p0--------------12---------------------
A-5---5-5--5-5--5----5-5-slide-7--5--------7p0-5p0----12--0---------------------
D--5-5--5--5-5-5-------5-------7-5-5----------------12-----0--------------------
G----------------------------------------------------------------------
B---0---0--2-3---------3-------5---------------------------------------------
E--------------------------------------------------0------------------

this is the intro enjoy