Close to me (de The cure)
(www.acordesytabs.com)
Verso:
g|-------------------------------------------------------------------------------------|
d|-----------------1--1----------------------------------------------------------------|
a|---2--2--2--2---------2--2--2--2--4--4---------------2--2----------------------------|
e|---------------------------------------------4--4--4--4--------2--2--2--2--0--0------|

Refrão:
g|-------------------------------------------------------------------------------------|
d|----------------1--1---------------1--1----------------1--1---------------1--1-------|
a|-------------------------------------------2--2--2--2---------2--2--2--2-------------|
e|---0--0--0--0--------0--0--0--0------------------------------------------------------|

Solo1 :

e|----------------------7-6-----6----------------|
b|-7-5-4------7-5-4---------7-------7------------|
g|-------4----------4----------------6-----------|
d|-----------------------------------------------|
a|-----------------------------------------------|
e|-----------------------------------------------|

Solo2 : oque fica no refrão

e|----------------------7-9-11---7-9-11----------|
b|---5-7-8----5-7-8------------------------------|
g|-----------------------------------------------|
d|-----------------------------------------------|
a|-----------------------------------------------|
e|-----------------------------------------------|