Sad But True (de Metallica)
(www.acordesytabs.com)

Author/Artist: Metallica
Title: Sad But True
Transcribed by: Kone182
Email: cradleslayer666@aol.com

This is all i know of te tune but it is CORRECT (hee hee)

------------------------------------------------------------------------------
--------1-111-----111-----111-------------------------------------------------
-2-22-2-3-333-222-333-222-333--765--3*5---------------------------------------
------------------------------------------------------------------------------
------------------------------------------------------------------------------
------------------------------------------------------------------------------
 ^high e string^   [INTRO]         ^X4^                                       

-0x-0-00x-0-------------3b----------------------------------------------------
-2x-2-22x-2-----5p0-1p0-------------------------------------------------------
------------------------------------------------------------------------------
------------------------------------------------------------------------------
------------------------------------------------------------------------------
------------------------------------------------------------------------------
 ^high e string^   [CHORUS]  Repeat