Method to this madness (de Voodoo glow skulls)
(www.acordesytabs.com)

Song: Method to this madness ( or metodo a esta locura )
Band: Voodoo Glow Skulls
Album: Firme
tabbed by: Carlos Pino

intro          x1                                       x4
G:----------------¦-----------------------------------------------
D:----------------¦-----------------------------------------------
A:--7--5-4------¦---5-5---------7-7--------------------------
E:------------5---¦---------5-5---------5-5--------------------

verse                                           x4
G:---------------------------------------------------------------
D:---------------------------------------------------------------
A:---7>---5>--------------------------------------------------
E:----------------5>-------------------------------------------

riff
G:---------------------------------------------------------------
D:---------------------------------------------------------------
A:-2------------2--------7-5-2----------2--------------------
E:-----5-3-5------5-3-----------5-3-5-----5-0-------------

G:---------------------------------------------------------------
D:---------------------------------------------------------------
A:-2------------2--------7-5-2-----------5-2----------------
E:-----5-3-5------5-3-----------5-3-5-----------------------

verse ( end up with b )

chorus                                          x4
G:---------------------------------------------------------------
D:---------------------------------------------------------------
A:-5-5--------77----------------------------------------------
E:--------55--------55----------------------------------------

riff

bridge
G:---------------------------------------------------------------
D:---------------------------------------------------------------
A:------------7>---------------------------------------------------
E:-0>--5>------------------------------------------------------------


chorus 
outro : same as intro