El breve espacio en que no está (de Pablo milanes)
(www.acordesytabs.com)
INTRO
     G                   C          D         G         C       D       G
e ---7--------7-------7--8-----8-7--5----10-8-7------7--8---8-7-5---7---7--
B ---8---8-10-8--8-10----8--8-------7--7------8----8----8-------7-7---8-8--
G ---7-7--------------------------------------7--7------9-9-----7-------7--
D ---9---------------------------------------------------------------------
A -------------------------------------------------------------------------
E -------------------------------------------------------------------------
            C        D    G      C        D     G
e ----------------3--2-0---------0-----0--2--0----- | 
B --8---8-7-5---5-3--3----2------1---1----3-----0-- | 
G ----7-----5-5------2----0--------0------2-----0-- | 
D ----------5-----------------------------0-----0-- | 
A ----------3--------------------3----------------- | 
E ------------------------3---------------------3-- | 

G             C      D       G   C  D 
Todavía quedan restos de humedad
G              C  A7     D    C  D
sus olores llenan ya mi soledad
G               C  C/B  Am
en la cama su silueta
     D7              Bm
se dibuja cual promesa
      G              C    C/B Am             D   C  D 
de llenar el breve espacio       en que no está.


G             C  D       G  C  D
Todavía yo no sé si volverá
G                 C      A7       D   C  D
nadie sabe al día siguiente lo que hará
      G              C    C/B  Am
rompe todos mis esquemas, 
      D7           Bm
no confiesa ni una pena
      G           C     C/B Am           D    B7sus4  B7
no me pide nada a cambio       de lo que da.


      Em           C      D                   G
Suele ser violenta y tierna no habla de uniones eternas
         F#7              Bm             F#7       Bm
más se entrega cual si hubiera solo un día para amar,
E7               Am             D         G
no comparte una reunión más le gusta la canción
        C   C/B  Am    D    C  D
que comprometa su     pensar. . .


G                C     D       G     C  D
Todavía no pregunté: '¿te quedarás?'
G               C      A7        D     C  D
temo mucho a la respuesta de un '¡jamás!'
      G           C    C/B  Am
la prefiero compartida 
      D7            Bm
antes que vaciar mi vida
         G             C     C/B Am          D
no es perfecta mas se acerca        a lo que yo 
C D C D                G
. . . . simplemente soñé. 

PUENTE
         G              C      D    G  C  D      G                  C
e ----------7v--7-7-7-h-8-p-7----------------7-h-8-h-10-10-10-s 15-12-12-
B --8-h-10---------------------10-8-8------------------------------------
G -----------------------------------------------------------------------
D -----------------------------------------------------------------------
A -----------------------------------------------------------------------
E -----------------------------------------------------------------------
    A7      D           C               D     G
e --12-12-------10-10-p-8--8-8-p-7--7-7---------- | 
B --------8-10--------------------------10--8-8-- | 
G ----------------------------------------------- | 
D ----------------------------------------------- | 
A ----------------------------------------------- | 
E ----------------------------------------------- | 

      Em           C      D                   G
Suele ser violenta y tierna no habla de uniones eternas
         F#7              Bm             F#7       Bm
más se entrega cual si hubiera solo un día para amar,
E7               Am             D         G
no comparte una reunión más le gusta la canción
        C   C/B  Am    D    C  D
que comprometa su     pensar. . .


G                C     D       G     C  D
Todavía no pregunté: '¿te quedarás?'
G               C      A7        D     C  D
temo mucho a la respuesta de un '¡jamás!'
      G           C    C/B  Am
la prefiero compartida 
      D7            Bm
antes que vaciar mi vida
         G             C     C/B Am          D
no es perfecta mas se acerca        a lo que yo 
C D C D                G  C  D  G  C  D  G
. . . . simplemente soñé-e-e-e-e-e-e-e-e-e-e.