Blitzkreig (de Metallica)
(www.acordesytabs.com)
Intro
----|----------------|----------------|----------------|--------|
----|----------------|----------------|----------------|--------|
----|----------------|----------------|----------------|--------|
7---|7s(b9)----(b9)--7s(b9)|----(b9)--7s(b9)----|----------------|----7---|
5---|5s7-----7---5s7-|----7---5s7-----|(b9)--10------7---|----5---|
----|----0-0---0-----|0-0---0-----0-0-|7---8---0-0-5---|0-0-----|

----------------|----------------|----------------|--------|
----------------|----------------|----------------|--------|
----------------|----------------|----------------|--------|  4
7s(b9)----(b9)--7s(b9)|----(b9)--7s(b9)----|----------------|----7---|vezes
5s7-----7---5s7-|----7---5s7-----|(b9)--10------7---|----5---|
----0-0---0-----|0-0---0-----0-0-|7---8---0-0-5---|0-0-----|

----------------|----------------|----------------|--------|
----------------|----------------|----------------|--------| 
----------------|----------------|----------------|--------|  
7s(b9)----(b9)--7s(b9)|----(b9)--7s(b9)----|----------------|--------| 
5s7-----7---5s7-|----7---5s7-----|(b9)--10------7---|--------| 
----0-0---0-----|0-0---0-----0-0-|7---8---0-0-5---|0-0-12ss|

----------------|----------------|
----------------|----------------|
----------------|----------------|  3
----------------|----------------|vezes
----------------|----------------|
0-0-2-0-0-3-0-0-|2-0-0-3-0-0-2s3-|

----------------|----------------|
----------------|----------------|
----------------|----------------|
----------------|------------5s4-|
----------------|------------3s2-|
0-0-2-0-0-3-0-0-|2-0-0-3-0-0-----|

1.Let us have peace, let us have ..........
2.Save us from fate, save us from hate.......
----------------|----------------|----------------|----------------|
----------------|----------------|----------------|----------------|
----------------|----------------|----------------|----------------|
----------------|----------------|----------------|------------5s4-|
----------------|----------------|----------------|------------3s2-|
0-0-2-0-0-3-0-0-|2-0-0-3-0-0-2s3-|0-0-2-0-0-3-0-0-|2-0-0-3-0-0-----|

Let us have time, let the sun shine.......
Come to our need, hear our plea.........
----------------|----------------|----------------|----------------|
----------------|----------------|----------------|----------------|
----------------|----------------|----------------|----------------|
----------------|----------------|----------------|------------5s4-|
----------------|----------------|----------------|------------3s2-|
0-0-2-0-0-3-0-0-|2-0-0-3-0-0-2s3-|0-0-2-0-0-3-0-0-|2-0-0-3-0-0-----|

                 The day is coming        ......
                 The day is dawning       ......
----------------|----------------|----------------|----------------|
----------------|----------------|----------------|----------------|
----------------|----------------|----------------|----------------|
2---2---x-5s4-5-|--------4s5-4---|2---2---x-5s4-5-|--------4s5-7---|
0---0---x-3s2-3-|----3-3-2s3-2---|0---0---x-3s2-3-|----3-3-2s3-5---|
----------------|----------------|----------------|----------------|

                 Inferno coming             .....
                 Aliens coming              .....
----------------|----------------|----------------|----------------|
----------------|----------------|----------------|----------------|
----------------|----------------|----------------|----------------|
2---2---x-5s4-5-|--------4s5-4---|2---2---x-5s4-5-|--------4s5-7---|
0---0---x-3s2-3-|----3-3-2s3-2---|0---0---x-3s2-3-|----3-3-2s3-5---|
----------------|----------------|----------------|----------------|

Blitzkrieg
Blitzkrieg
----------------|----------------|----------------|--------|
----------------|----------------|----------------|--------|
----------------|----------------|----------------|--------|
7s(b9)----(b9)--7s(b9)|----(b9)--7s(b9)----|----------------|----7---|
5s7-----7---5s7-|----7---5s7-----|(b9)--10------7---|----5---|
----0-0---0-----|0-0---0-----0-0-|7---8---0-0-5---|0-0-----|

----------------|----------------|----------------|--------|
----------------|----------------|----------------|--------|
----------------|----------------|----------------|--------|
7s(b9)----(b9)--7s(b9)|----(b9)--7s(b9)----|----------------|--------|
5s7-----7---5s7-|----7---5s7-----|(b9)--10------7---|----(b9)--|
----0-0---0-----|0-0---0-----0-0-|7---8---0-0-5---|0-0-7ss-|

Solo
F#5
--------------------------------|--------------------------------|
--------------------------------|------------------------2-----2-|
--------------------------------|--------2-----2-4--2--4----4----|
------------------------2-----2-|4---2-4-----4-------------------|
--------------2-4---2-4-----4---|--------------------------------|
2-2-2-2-5-2-5-----5-------------|--------------------------------|

--------2-----2-5p2-----------5-|2-------------------------------|
5-2-5-----5-2-------5-2-2-2-2---|2-------------------------------|
----------------------2-2-2-2---|----4---2-------2---4^------2---|
--------------------------------|------------5-------------------|
--------------------------------|--------------------------------|
--------------------------------|--------------------------------|

--------------------------------|--------------------------------|
5^--------r-^-----------5---3---|2-------2---3---232-----2--4----|
--------------------------------|----4---------------4------4--2-|
--------------------------------|--------------------------------|
--------------------------------|--------------------------------|
--------------------------------|--------------------------------|

--------------------------------|------------------------------4-|
--------------------------------|----------------------------7---|
4p-2----2-----------------------|--------------------------------|
------4----4--2-4p2-----2---4---|--------------------------------|
--------------------4-----------|4p2-----2---4---2---------------|
--------------------------------|----4-------------------2-------|

G#5
7p-4----4-----------------------|--------------------------------|
------7----7--4-7p-4----4-------|--------------------------------|
----------------------6----6--4-|6p-4----4-----------------------|
---3-------3--------------------|------6----6--4-6p-4----4-------|
--------------------------------|----------------------6----6--4-|
--------------------------------|--------------------------------|

--------------------------------|--------------------------------|
--------------------------------|--------------------------------|
--------------------------------|--------4-------------------4---|
--------------------------------|4-h-6-------6-------6p4---------|
6p-4----4-----------4-s-6-------|------------------------6-------|
------7----7--4-7---------------|--------------------------------|

--------------------------------|--------------------------------|
--------------------------------|--------------------------------|
6-6-6-6-7-7-7-7s(b9)(b9)(b9)(b9)7-7-7s(b9)|(b9)(b9)(b9)(b9)111111111313131311111113|
--------------------------------|--------------------------------|
--------------------------------|--------------------------------|
--------------------------------|--------------------------------|

--------------------------------|--------------------------------|
--------------------------------|------------16--19^-------------|
131313131414141416161616141416--|1816----18--------------16-ss---|
--------------------------------|----16------------------16-ss---|
--------------------------------|--------------------------------|
--------------------------------|--------------------------------|

Bb5
--------------------------------|--------------------------------|
--------------------------------|--------------------------------|
--------------------------------|--------------------------------|
--------------------------------|----------------6-------6---7---|
----------------4-------4---5---|----6---8-----------8-----------|
6-------6-----------6-----------|--------------------------------|

--------------------------------|----6-----------------------13--|
--------------------------------|--------9p6-----6-------14------|
----------------6-------6---8^--|------------8-----6-------------|
----8---8-----------8-----------|--------------------8-----------|
--------------------------------|--------------------------------|
--------------------------------|--------------------------------|

18-13---------------------------|--------------------------------|
------14--------14-ss-----------|--------------------------------|
--------15--------------14-ss---|8p-6----------------------------|
---3----------------------------|------8-6--8--------------------|
--------------------------------|--------------6-----------------|
--------------------------------|----------------(b9)--------------|

--------------------------------|--------------------------------|
--------------------------------|--------------------------------|
---------------------------[6]--|--------^---r-----------^--ss---|
--------------------6---8-------|--------------------------------|
--------4---6---8---------------|--------------------------------|
4---6---------------------------|--------------------------------|

E5               C5               E5               C5
----------------|-<12>-----------|----------x-x-x-|----------------|
----------------|----------------|----------------|----------------|
(b9)--------------|--------------(b9)|----------------|<12>------------|
----------------|----------------|----------------|----------------|
----------------|----------------|----------------|----------------|
----------------|----------------|----------------|----------------|

E5               C5               E5               C5
----------------|----------------|----------------|----------------|
----------------|----------------|----------------|----------------|
(b9)---------<12>-|----------------|-<5>------------|<5>---------0---|
----------------|----------------|----------------|----------------|
----------------|----------------|----------------|----------------|
----------------|----------------|----------------|----------------|

E5		 E5		  C5		   C5  B5  A5  G5
121212--12121212|12--12121212--12|121212--12121212|12--12121212--12|
121212--12121212|12--12121212--12|121212--12121212|12--12121212--12|
(b9)(b9)(b9)--(b9)(b9)(b9)(b9)|(b9)--(b9)(b9)(b9)(b9)--(b9)|(b9)(b9)(b9)--(b9)(b9)(b9)(b9)|(b9)--(b9)(b9)(b9)(b9)--(b9)|
----------------|----------------|----------------|----------------|4 
----------------|----------------|----------------|----------------| 
----------------|----------------|----------------|----------------|v
                |                |                |                |e
7-----10----7---|--10----7---10--|7-----10----1212|--10----7---10--|z
----------------|----------------|----------------|----------------|e
4-----7-----4---|--7-----4---7---|4-----7-----(b9)(b9)|--7-----4---7---|s
----------------|----------------|----------------|----------------|
----------------|----------------|----------------|----------------|
----------------|----------------|----------------|----------------|

----------------|----------------|----------------|----------------|
----------------|----------------|--------------5-|----6---6-5-----|
----------------|----------------|--------------5-|----5---5-5-----|  2
(b9)--11--11(b9)--(b9)|----11--11(b9)--5-|5-5-7---3-2---5-|----5---5-5-----|vezes
7---7---7-7---7-|----7---7-7---3-|3-3-3-x-3-3-3-3-|3-3-3-3-3-3-3-3-|
0---0-0-0-0-0-0-|0-0-0-0-0-0-0---|----------------|----------------|

----------------|----------------|----------------|----------------|
----------------|----3---3-2-----|----------------|----------------|
2---------------|----2---2-2-----|----------------|----------------|
2---0-2-0-2---2-|----2---2-2-----|----------------|----------------|
0-----0---0-0-0-|0-0---0-----0---|----------------|--------3p2-----|
----------------|--------------0-|3-----2-----3---|--0-2-3-----3-2-|

----------------|----------------|----------------|----------------|
----------------|----------------|----------------|----------------| 
----------------|----------------|----------------|----------------|  2
----------------|----------------|----------------|----------------|vezes 
----------------|----------------|----------------|--------3p2-----| 
0-0-2-0-2-3-0-0-|2-0-0-3-0-0-2-3-|3-----2-----3---|--0-2-3-----3-2-|

---------------1(b9)1(b9)--1(b9)1(b9)24-24-24---24-1(b9)--------------------|
------------------------------------------------------------------|
------------------------------------------------------------------|
------------------------------------------------------------------|
2-----------------------------------------------------------------|
0--------------------------------------------------x-ss-----------|