Ghost of you (de My chemical romance)
(www.acordesytabs.com)
Intro - Somente guitarra

00:13 Verso

G|---------------------------------------------------------------------------------------------------------
D|---------------------------------------------------------------------------------------------------------
A|---------------------------------------------------------------------------------------------------------
E|7-7-7-7-7-7-7-7-7-7-7-7-7-7-7-7-7-7-7-7-7-7-7-7-9-9-9-9-10-10-10-10-0-0-0-0-0-0-0-0

G|---------------------------------------------------------------------------------------------------------
D|---------------------------------------------------------------------------------------------------------
A|---------------------------------------------------------------------------------------------------------
E|0-0-0-0-0-0-0-0-2-2-2-2-2-2-2-2-2----7-7-7-7-7-7-7-7-7-7-7-7-7-7-7-7-7-7-7-7-7-7-7-7-

G|--------------------------------------------------------------------------------------------------------
D|--------------------------------------------------------------------------------------------------------
A|--------------------------------------------------------------------------------------------------------
E|9-9-9-9-10-10-10-10-0-0-0-0-0-0-0-0-0-0-0-0-0-0-0-0-2-2-2-2-2-2-2-2-2-2-2-2-2-2-2-2

00:40 Refrão

G|--------------------------------------------------------------------------------------------------------
D|--------------------------------------------------------------------------------------------------------
A|--------------------------------------------------------------------------------------------------------
E|3-3-3-3-3-3-3-3-3-3-3-3-3-3-3-3-0-0-0-0-0-0-0-0-0-0-0-0-0-0-0-0-7-7-7-7-7-7-7-7-7-7-

G|--------------------------------------------------------------------------------------------------------
D|--------------------------------------------------------------------------------------------------------
A|--------------------------------------------------------------------------------------------------------
E|7-7-7-7-7-7-5-5-5-5-5-5-5-5-5-5-5-5-5-5-5-5-3-3-3-3-3-3-3-3-3-3-3-3-3-3-3-3-0-0-0-0-

G|--------------------------------------------------------------------------------------------------------
D|--------------------------------------------------------------------------------------------------------
A|--------------------------------------------------------------------------------------------------------
E|0-0-0-0-0-0-0-0-0-0-0-0---------------------------------------------------------------------------
Repita o verso apenas uma vez

Repita o refrão apenas uma vez



02:12 Essa aqui é a parte que ele fala "If I Fall..."

G|-------------------------------------------------------------------------------------------------
D|-------------------------------------------------------------------------------------------------   3x   
A|-------------------------------------------------------------------------------------------------  
E|7-7-7-7-7-7-7-7-3-3-3-3-3-3-3-3-9-9-9-9-9-9-9-9-2-2-2-2-2-2-2-2------------------

G|--------------------------------------------------------------------------------------------------
D|--------------------------------------------------------------------------------------------------  
A|--------------------------------------------------------------------------------------------------
E|7-7-7-7-7-7-7-7-3-3-3-3-3-3-3-3-9-9-9-9-9-9-9-9-10-10-10-10-9-9-9-9-------------


Depois dessa parte aqui a música volta por refrão.