Day Tripper (de Beatles)
(www.acordesytabs.com)
band: Beatles
Song: Day Tripper (Lead) 
Tabbed By
Jimmy

I saw some day tripper tabs but none of them were of the lead part.
so anyway this is it 
--4-2-0-0---0------4-2-0-------------5-4-2-0-----4-2-0-----------------
--------------------------3---------------------------3---------------
------------------------------1-1-1----------2------------1-1-1-1-------
-----------------------------------------------------------------9-11-9-
-----------------------------------------------------------------------
-----------------------------------------------------------------------

------------------------------------------------------------------
-11~-9-11----12-11-9-11----------------10----9------5-6----6-6-4---
-11~-9-11----13-11-9-11----------9-----11----8------5-6----6-6-4---
-----------------------11----11---11------------6-----------------
------------------------------------------------------------------
------------------------------------------------------------------

After you have played this part ( i think you play it about two times)
You then have to go into this part which is very easy its just this!
Make you hold each note for 4 beats example  2 1e&a2e&a  4 1e&a2e&a 
get the idea

----------------------------------------------1-----2----4----5---7-
----------------------------------------------0-----2----4----5---7-
----------------------------------1-----4---- 0-----2----4----6---8-
-------------1--------2-------4---------2---------------------------
-2-----4--------------------------------4---------------------------
--------------------------------------------------------------------
This is the next part of the song! When you listen to the song you 
will know when to come in


----------------------------------------------9---11-9--9---------------
-11---9--11------12-11-9-11-------------------10--10-10-8-----------------------
-11---9--11------13-11-9-11-------------9---------------------------------------
----------------------------11-------11---11------------------------------
---------------------------------------------------------------------
---------------------------------------------------------------------

-------------------------------------------------------------------
---5-6----6-6---4--------------------------------------------------
---5-6----6-6---4--------------------------------------------------
-6-----------------------------------------------------------------
-------------------------------------------------------------------
-------------------------------------------------------------------

--------------------------------------------------------------------
-9---7---9--------------9--7--9-------------------------------------
-9---7---9--------------9--7--9--7----------------------------------
---------------------------------9----------------------------------
-------------------------------------------------------------------
--------------------------------------------------------------------

Now thats it! its a very easy song but you just have to watch your 
timing. Listen to the song to know when to come in and out!
enjoy
jimmy