Burn (de The cure)
(www.acordesytabs.com)
Tuning: Standard 
 
 
Intro: 
 
|----------------------------| 
|----------------------------| 
|----------------------------| 
|----------------------------| 
|--5--3----------------------| 
|---------3------------------| 
 
Verse: 
 
|----------------------------| 
|----------------------------| 
|----------------------------| 
|-------------------------5--| 
|----------5-----------------| 
|--3--5-0---------3--5-0-----| 
 
 "Solo 1": 
 
|-----------------------------------------| 
|-----------------------------------------| 
|--------14--12---------------10-(b9)10-12--| 
|----(b9)-----------------------------------| 
|-----------------------------------------| 
|-----------------------------------------| 

"Solo 2": 
                                x2 
|-------------------------------| 
|-------------------------------| 
|---(b9)-10--12---10-(b9)10-12------| 
|-------------------------------| 
|-------------------------------| 
|-------------------------------| 
 
                                x2 
|-------------------------------| 
|----------12-------------------| 
|---(b9)-10----------10-(b9)10-12---| 
|-------------------------------| 
|-------------------------------| 
|-------------------------------| 

intro   x3 
verse   x2 
intro   x3 
verse   x9 
solo    x2 
solo 2  x6 
intro   x4 
verse   x8 
 
 
The only part of this tab that I'm unsure of is the verse.