Memories of the past (de Morbid angel)
(www.acordesytabs.com)
.  - palm mute           /  - slide up to
  - slide down to       ~  - vibrato
h  - hammer on           b  - Bend
p  - pull off            Suffixes for bend
t  - tap                 f  - full bend    h - half bend
ph - pinched harmonic    q  - quarter bend t - tap bend
*  - see comment         ^  - Hold bend    r release bend
x  - Stuccatto           ~  - vibrato bend
,  - slight palm mute    () - ghost note, sustained note
"  - tremolo note         - Trill

Tuning E A D G B E

This song has been tabbed from the very start to the very end,
as in you can look at each note as the song goes along. I have
not skipped anything, I have replaced riffs where they appear.
This took me about an hour, so enjoy it!

0.04
 | -------------------------------------15~- | 
 | -10-10-10-10-11~---11-10~---------------- | 
 | ---------------------------9~---(b9)11-12~- | 
 | -12-12-12-12-13~---13-12~---------------- | 
 | ----------------------------------------- | 
 | -10-10-10-10-11~---11-10~---------------- | 

0.17
 | ---------------------------17~--17--------------------- | 
 | -10-10-10-11-11~---11-10~----------18----18----10~--10~ | 
 | ---------------------------14~--14----1(b9)---1(b9)-------- | 
 | -12-12-12-13-13~---13-12~----------15----15----12~--12~ | 
 | --------------------------------------17----17--------- | 
 | -10-10-10-11-11~---11-10~----------------------10~--10~ | 

0.34
 | ----------------------------------14-15~- | 
 | -10-10-10-10-11~---11-10~---------------- | 
 | ---------------------------9~---(b9)11-12~- | 
 | -12-12-12-12-13~---13-12~---------------- | 
 | ----------------------------------------- | 
 | -10-10-10-10-11~---11-10~---------------- | 

0.47
 | ---------------------------17~-17~--17-15-13-15-13-12~--13-15-17-12~- | 
 | -10-10-10-11-11~---11-10~-------------------------------------------- | 
 | ---------------------------14~-14~--14-12-10-12-10-9~~--10-12-14-9~~- | 
 | -12-12-12-13-13~---13-12~-------------------------------------------- | 
 | --------------------------------------------------------------------- | 
 | -10-10-10-11-11~---11-10~-------------------------------------------- | 

1.04
 | -17-15-13-15-13-12~--12-13-15~--15-13~--12-13-10~- | 
 | -------------------------------------------------- | 
 | -14-12-10-12-10-9~~--(b9)-10-12~--12-10~--(b9)-10-7~~- | 
 | -------------------------------------------------- | 
 | -------------------------------------------------- | 
 | -------------------------------------------------- | 

1.18
 | -------------------10~- | 
 | ----------------------- | 
 | -(b9)10-12~--12-10~--7~~- | 
 | ----------------------- | 
 | ----------------------- | 
 | ----------------------- | 

1.28
 | ----------------------------------14-15~- | 
 | -10-10-10-10-11~---11-10~---------------- | 
 | ---------------------------9~---(b9)11-12~- | 
 | -12-12-12-12-13~---13-12~---------------- | 
 | ----------------------------------------- | 
 | -10-10-10-10-11~---11-10~---------------- | 

1.40
 | ---------------------------17~-17~--17-15-13-15-13-12~--13-15-17-12~- | 
 | -10-10-10-11-11~---11-10~-------------------------------------------- | 
 | ---------------------------14~-14~--14-12-10-12-10-9~~--10-12-14-9~~- | 
 | -12-12-12-13-13~---13-12~-------------------------------------------- | 
 | --------------------------------------------------------------------- | 
 | -10-10-10-11-11~---11-10~-------------------------------------------- | 

1.57
 | -17-15-13-15-13-12~--12-13-15~--15-13~--12-13-10~- | 
 | -------------------------------------------------- | 
 | -14-12-10-12-10-9~~--(b9)-10-12~--12-10~--(b9)-10-7~~- | 
 | -------------------------------------------------- | 
 | -------------------------------------------------- | 
 | -------------------------------------------------- | 

2.09
 | -------------------10~- | 
 | ----------------------- | 
 | -(b9)10-12~--12-10~--7~~- | 
 | ----------------------- | 
 | ----------------------- | 
 | ----------------------- | 

2.19
 | --------------------17~- | 
 | ------------------------ | 
 | -(b9)-10-12~--12-15~--14~- | 
 | -11-12-15~--13-15------- | 
 | ------------------------ | 
 | ------------------------ | 

2.27
 | -12-13-15~--15-20~--17~--17~- | 
 | ----------------------------- | 
 | -(b9)-10-12~--12-15~--14~------ | 
 | ----------------------------- | 
 | -------------------------17~- | 
 | ----------------------------- | 

2.38
 | ---------------------------------------- | 
 | --------10~-----8~---------------------- | 
 | ---7-10------10---------(b9)10-12~--(b9)10~- | 
 | -7------------------5-7----------------- | 
 | ---------------------------------------- | 
 | ---------------------------------------- | 

2.51
 | ---------------------------------- | 
 | ---------------------------------- | 
 | -5-7-(b9)10~--7-9~----7-(b9)10~--(b9)--- | 
 | -7-7--------------7------------7~- | 
 | ---------------------------------- | 
 | ---------------------------------- |