Lord of all fevers (de Morbid angel)
(www.acordesytabs.com)
Tuning - 1/2 step down (Eb)  (Eb, Ab, Db, Gb, Bb, Eb)

*  - palm mute
/  - slide up
  - slide down
h  - hammer on
sb - slight bend
r  - release bend
"  - tremolo pick
p  - pull off
~  - vibrato

*NOTE* Listen to the song for the timings and there's
alot of riffs I'm unsure of so any corrections are welcome.
I also haven't tabbed any solos (cause I'm ***ty at lead)
to sorry about that. Hope this works out for ya.

LORD OF ALL FEVERS AND PLAGUE

Intro A (unsure)  (3x's)
 | ---------------- | 
 | ---------------- | 
 | ---------------- | 
 | ---------------- | 
 | -3/4--3--2-4-3-- | 
 | -1/2--1--0-2-1-- | 
         * *

Intro B
 | ---------------- | 
 | ---------------- | 
 | ---------------- | 
 | ---------------- | 
 | -3/4--3-/-4~--- | 
 | -1/2--1-/-2~--- | 

Figure A
 | -------------------- | 
 | -------------------- | 
 | -------------------- | 
 | -------------------- | 
 | -3----2--------98-- | 
 | -1-00-0-000000-7-- | 
    **   ******

Figure B (unsure)
 | ----------------------- | 
 | ----------------------- | 
 | ----------------------- | 
 | ----------------------- | 
 | -4h5h6"sbr-5"---------- | 
 | ---------------4h5"-- | 

Figure C
 | ---------------------------- | 
 | ---------------------------- | 
 | ---------------------------- | 
 | --------------------5--7-6-- | 
 | -5--4--2---2h3-2~~~-3--5-4-- | 
 | -3--2--0-------------------- | 
        *

Figure D1
 | ------------------------------------ | 
 | ------------------------------------ | 
 | ------------------------------------ | 
 | ------------------------------------ | 
 | ------------------------------7-10-- | 
 | -0--5-2~~-0--5-2~~-0--5-2~~-0-5--8-- | 
  *        *        *        *

Figure D2
 | ------------------------------------ | 
 | ------------------------------------ | 
 | ------------------------------------ | 
 | ------------------------------------ | 
 | ------------------------------7--8-- | 
 | -0--5-2~~-0--5-2~~-0--5-2~~-0-5--6-- | 
  *        *        *        *

Figure E
 | ------------------- | 
 | ------------------- | 
 | ------------------- | 
 | ------------------- | 
 | ----------3--4--5-- | 
 | -00000000-1--2--3-- | 
  ********

Solo Rhythm
 | ------- | 
 | ------- | 
 | ------- | 
 | -????-- | 
 | -????-- | 
 | -????-- |