Chapel of ghouls (de Morbid angel)
(www.acordesytabs.com)
..  - palm mute          /  - slide up to   - slide down to      ~  - vibrato
 h  - hammer on          b  - bend p  - pull off            Suffixes for bend
                          ph - pinch harmonic
                           f - full bend    h - half bend
*  - see comment           r - release      t - tap bend
X  - percussion mute       ~ - vibrato bend
@  - slight palm mute     () - ghost note, sustained note

Tune Gtr to Eb (1/2 step down)*note* The corrections are on Intro & Riff A
CHAPEL OF GHOULS

Intro
 | ------------------------------------------------------- | 
 | ------------------------------------------------------- | 
 | ------------------------------------------------------- | 
 | ------------------------------------------------------- | 
 | -2--2--2--2--2--2--7--8--(b9)-2--2--2--2--2--2--6--7--8-- | 
 | -0--0--0--0--0--0--5--6--7--0--0--0--0--0--0--4--5--6-- | 
pm.  .  .  .  .  .           .  .  .  .  .  .
Riff A (Ghouls, attack the church...)
 | ------------------------------------------------------- | 
 | ------------------------------------------------------- | 
 | ------------------------------------------------------- | 
 | ---------4/5------------------------4/5---------------- | 
 | ----3----2/3----3--7--8--(b9)----3----2/3----3--6--7--8-- | 
 | -0001-000----0001--5--6--7--0001-000----0001--4--5--6-- | 
pm...  ...    ...            ...  ...    ...Riff B (Crush the priest...)
 | --------------------------------------------------------------------------------- | 
 | --------------------------------------------------------------------------------- | 
 | --------------------------------------------------------------------------------- | 
 | --------7----7----7--------7-------------------7----7----7--------7-------------- | 
 | --------5----5----5--------5----6----5---------5----5----5--------5----6---5--4-- | 
 | -000000---00---00---000000---00-4-00-3--000000---00---00---000000---00-4---3--2-- | 
pm......   ..   ..   ......   ..   ..    ......   ..   ..   ......   ..
Riff C (solo rhythm )
 | -------------------------------------------------- | 
 | -------------------------------------------------- | 
 | -------------------------------------------------- | 
 | -4-----------5--------6/6-----------3----------- | 
 | -2--2--4--5--3--2--4--4/4--2--4--5--1--2--4--5-- | 
 | ----0--2--3-----0--2---------0--2--3-----0--2--3-- | 
pm   .  .  .     .  .         .  .  .     .  .  .
Riff D (this is 100orrect cause I saw this riff in Guitar World)
 | ---------------------------------------------------------------- | 
 | ---------------------------------------------------------------- | 
 | ---------------------------------------------------------------- | 
 | -----------------------8--(b9)10-------------------------7--8--(b9)- | 
 | -----------------------6--7--8-------------------------5--6--7-- | 
 | -333322226666555522223----------333322226666555522223----------- | Riff E
 | -------------------------------------------------- | 
 | -------------------------------------------------- | 
 | -------------------------------------------------- | 
 | -(b9)----(b9)------------10----10--------------------- | 
 | -7-777-7--(b9)-8-----8--8-888-8-10/11------11(b9)- | 
 | ----------7--6-666-6-----------8/-(b9)-99(b9)-9-8-- | 
pm  ...         ...      ...        ...Riff F
 | ----------------------------------------------------------- | 
 | ----------------------------------------------------------- | 
 | ----------------------------------------------------------- | 
 | ------------------------------ph------------------6--7--8-- | 
 | ---------4/5-3----------6-7-7~---------4/5-3----------- | 
 | -0-0-0-0-2/3-1--0-0-0-0-4-5----0-0-0-0-2/3-1--4--5--6-- | 
pm. . . .          . . . .        . . . . end.