I turned into a martian (de Misfits)
(www.acordesytabs.com)

I turned into a Martian
by: The Misfits

Intro:
G------------------------------------------|
D------------------------------------------|
A-------------55--------------------------|
E--3---5----------------------------------|

Verses:
G------------------------------------------|
D------------------------------------------|
A-----------5-----------------------------|
E----777777----5555----------------------|

Chorus:
G------------------------------------------|
D------------------------------------------|
A-------------------5555----55-----------|
E----3333---5555----------------55-------|

Thats about it just repeat chorus till its over and you're set!

Have fun gang!!! 

e-mail me if you have any corrections
SugarDaddy_2020@hotmail.com