Chop suey (de System of a down)
(www.acordesytabs.com)

    Band:System of a Down
    Song:"Chop Suey"

     

     Tune your guitar to drop c (C,G,C,F,A,D)

     Intro
    ----10-10-10--11-11-11--8-8-8--10-10-10-------
    ----11-11-11--13-13-13--101010-11-11-11-------
    ----------------------------------------------
    ----------------------------------------------
    ----------------------------------------------
    ----------------------------------------------
 
      The muted guitar part at the intro is the same just pick the first string them the second
    with the same chords.
    
    Bridge:
    ---------------------------------------------
    ---------------------------------------------
    ---------------------------------------------
    --55555555-44444444-77777777-1010101010101010
    --55555555-44444444-77777777-1010101010101010
    --55555555-44444444-77777777-1010101010101010

     This is th part after the intro and choruses.For the other parts 
  in the song play this on  the last string
  sometimes and muted on other part it's easy figure it  out.

    Verse:
     Intro+Chorus
   D/ ----10-10-10--11-11-11--8-8-8--10-10-10-------
   A/ ----11-11-11--13-13-13--101010-11-11-11-------
   F/ ----------------------------------------------
   C/ ----------------------------------------------
   G/ ----------------------------------------------
   C/ ----------------------------------------------
 
      The muted guitar part at the intro is the same just pick the first 
    string them the second with the same chords.
    
    Bridge:
   D/ ---------------------------------------------
   A/ ---------------------------------------------
   F/ ---------------------------------------------
   C/ --55555555-44444444-77777777-1010101010101010
   G/ --55555555-44444444-77777777-1010101010101010
   C/ --55555555-44444444-77777777-1010101010101010

     For the other parts in the song do that on  the last string
  sometimes and muted on other part it's easy figure it  out.

    Verse:
   D/ -----------------------------------------------
   A/ -----------------------------------------------
   F/ -----------------------------------------------
   C/ ------55-5555555554--4444444475----------------
   G/ ------55-5555555554--4444444475----------------
   C/ ------55-5555555554--4444444475----------------

      Thats  it easy song there's a part in the chorus with
 the muted guitar that i haven't figured out yet.
      Hear the song a youll get the timing and most of the parts.
       this  was my first tab so  anything  wrong or that you think would
   fit better email me at: Songokou77@hotmail.com