Magic moment (de Misfits)
(www.acordesytabs.com)
C#        A#         F#        G#      
e | ------------------------------------------------------ | 
B | ------------------------------------------------------ | 
G | ----6---------3--------------------------------------- | 
D | ----6---------3----------4----------6----------------- | 
A | ----4---------1----------4----------6----------------- | 
E | -------------------------2----------4----------------- | 

Intro: C# A# F# G#

           C# 
This magic moment
    A#
So different and so new
           F#
Was like any other
      G#
Until I kissed you


             C#
And then it happened 
    A#
It took me by surprise
                F#  
I knew that you felt it too
        G#
By the look in your eyes


              A#
Sweeter than wine
                 F#
Softer than the summer night
             C#
Everything I want I have
            G#     
Whenever I hold you tight


           C#  
This magic moment
          A#    
While you lips are close to mine
           F#
Will last forever 
 G#
Forever til the end of time

e | --------------------------------------------------- | 
B | --------------------------------------------------- |  
G | --------------------------------------------------- | 
D | --------------------------------------------------- | 
A | -4---4-6-88-6-4--1---1-3-44-3-1-------------------- | 
E | --------------------------------2--2-2/4-66-4-6-4-4 | 

   Sweeter than wine...

   This magic moment...