Hole in the earth (de Deftones)
(www.acordesytabs.com)
Tuning: Drop C (C,G,C,F,A,D) 
 
intro 
D|-------------------------------------------------------------------------| 
A|-------------------------------------------------------------------------| 
F|-------------------------------------------------------------------------| 
C|---4--4--4--4---2---4---2---4--4----2--2--2--2--2--2--2--2--2--2--2--2---| 
G|---4--4--4--4---2---4---2---4--4----2--2--2--2--2--2--2--2--2--2--2--2---| 
C|---4--4--4--4---2---4---2---4--4----2--2--2--2--2--2--2--2--2--2--2--2---| 
 
D|-----------------------------------------------------------------| 
A|-----------------------------------------------------------------| 
F|-----------------------------------------------------------------| 
C|---4--2--4--2--4--2--4--4---2--2--2--2--2--2--2--2--2--2--2--2---| 
G|---4--2--4--2--4--2--4--4---2--2--2--2--2--2--2--2--2--2--2--2---| 
C|---4--2--4--2--4--2--4--4---2--2--2--2--2--2--2--2--2--2--2--2---| 
 
                                       ring 
D|--------------------------------------------------------------| 
A|--------------------------------------------------------------| 
F|--------------------------------------------------------------| 
C|---4--4--4--4---2---4---2---4--4----2-------------------------| 
G|---4--4--4--4---2---4---2---4--4----2-------------------------| 
C|---4--4--4--4---2---4---2---4--4----2-------------------------| 
 
Verse part 
D|-------------------|-|----------------------------------| 
A|-------------------|o|----------------------------------| 
F|--/13----/14-------|-|-------8------/13----/14----------| 
C|-------------------|-|----------------------------------| 
G|--/11----/12-------|o|-------6------/11----/12----------| 
C|-------------------|-|----------------------------------| 
 
Chorus part 
        Repeat this frame mostly             this one is also in the Chorus 
D|----11--------------11-------------|-----14----11----------14----11---------| 
A|---------12-----9--------12-----9--|-----------------12----------------12---| 
F|-----------------------------------|----------------------------------------| 
C|-----------------------------------|----------------------------------------| 
G|-----------------------------------|----------------------------------------| 
C|-----------------------------------|----------------------------------------| 
 
Filler 
D|-------------------------------------------------------------------------| 
A|-------------------------------------------------------------------------| 
F|-------------------------------------------------------------------------| 
C|---4--4--4--4---2---4---2---4--4----2--2--2--2--2--2--2--2--2--2--2--2---| 
G|---4--4--4--4---2---4---2---4--4----2--2--2--2--2--2--2--2--2--2--2--2---| 
C|---4--4--4--4---2---4---2---4--4----2--2--2--2--2--2--2--2--2--2--2--2---| 
                              ring 
D|----------------------------------| 
A|----------------------------------| 
F|----------------------------------| 
C|---4--2--4--2--4--2--4--4---2-----| 
G|---4--2--4--2--4--2--4--4---2-----| 
C|---4--2--4--2--4--2--4--4---2-----| 
 
 
Outro 
D|------------------------------------| 
A|------------------------------------| 
F|------------------------------------| 
C|---4--4--4--4---2---4---2---4--4----| 
G|---4--4--4--4---2---4---2---4--4----| 
C|---4--4--4--4---2---4---2---4--4----| 
 
D|------------------------------------| 
A|------------------------------------| 
F|------------------------------------| 
C|---4--4--4--4---2---4---2---4--4----| 
G|---4--4--4--4---2---4---2---4--4----| 
C|---4--4--4--4---2---4---2---4--4----| 
 
D|------------------------------------| 
A|------------------------------------| 
F|------------------------------------| 
C|---4--4--4--4---2---4---2---4--4----| 
G|---4--4--4--4---2---4---2---4--4----| 
C|---4--4--4--4---2---4---2---4--4----| 
 
D|--------------------------------------------------------------| 
A|--------------------------------------------------------------| 
F|--------------------------------------------------------------| 
C|--4----4--5--0--4----4--5--0--4----4--5--0--4----4--5--0--4---| 
G|--4----4--5--0--4----4--5--0--4----4--5--0--4----4--5--0--4---| 
C|--4----4--5--0--4----4--5--0--4----4--5--0--4----4--5--0--4---| 
 
D|--------------------------------------------------------------| 
A|--------------------------------------------------------------| 
F|--------------------------------------------------------------| 
C|--4----4--5--0--4----4--5--0--4----4--5--0--4----4--5--0--4---| 
G|--4----4--5--0--4----4--5--0--4----4--5--0--4----4--5--0--4---| 
C|--4----4--5--0--4----4--5--0--4----4--5--0--4----4--5--0--4---| 
 
D|--------------------------------------------------------------| 
A|--------------------------------------------------------------| 
F|--------------------------------------------------------------| 
C|--4----4--5--0--4----4--5--0--4----4--5--0--4----4--5--0--4---| 
G|--4----4--5--0--4----4--5--0--4----4--5--0--4----4--5--0--4---| 
C|--4----4--5--0--4----4--5--0--4----4--5--0--4----4--5--0--4---| 
D|--------------------------------------------------------------| 
A|--------------------------------------------------------------| 
F|--------------------------------------------------------------| 
C|--4----4--5--0--4----4--5--0--4----4--5--0--4----4--5--0--4---| 
G|--4----4--5--0--4----4--5--0--4----4--5--0--4----4--5--0--4---| 
C|--4----4--5--0--4----4--5--0--4----4--5--0--4----4--5--0--4---| 
 
 
These repeat as it fades out 
D|----11--------------11-------------|-----14----11----------14----11---------| 
A|---------12-----9--------12-----9--|-----------------12----------------12---| 
F|-----------------------------------|----------------------------------------| 
C|-----------------------------------|----------------------------------------| 
G|-----------------------------------|----------------------------------------| 
C|-----------------------------------|----------------------------------------|