Que lástima (de Alejandro Fernandez)
(www.acordesytabs.com)
INTRO


E-----2/6----6----6------7----7---------11----9-----9------5p6-5---2--
B---3-----------------------------------------------------5--------3--
G----------7----7---7/-8---8----8/--12--12---10----10--------------4--


E-----2-3/-6----6-6-------7-7--8-7--7/--11--11-11---9--9--------------
B---3-----------------------------------------------------------------
G---------------7-7-7/-8--8-8--9-8--8/--12--12-12--10-10--------------

E---5-6-7-9-5------6/----8/-9--5--------------------------------------
B---5------------5-------------6--------------------------------------
G---5--------------------------7--------------------------------------


De un tiempo aca
no todo va muy bien
y empiezan a faltarnos las palabras
nos falta que nos demos mas amor
caricias con pasion
miradas largas

De un tiempo aca
no todo va muy bien
no creas que quiero hacer triste esta charla
solo quiero evitar ser yo despues
quien tenga que decir
¡que lastima!

¡Que lastima!
se nos murio el amor
solo queda el dolor
del alma

¡Que lastima!
ya nada puedo hacer
hoy tengo que entender
que pude haber hecho mas
y hoy no nos queda mas
¡que lastima!

E---6-7/-9---9--9/-7-/-6-------6-7/-9---9--9/-7-/-6-------------------
B--6-------8------------------6-------8-------------------------------
G---------------------------------------------------------------------

No todo va
como quieres, lo se,
perdoname que insista con lo mismo
pero es que entre tu y yo hay un abismo
creo que tu amor y el mio no se llevan bien

De un tiempo aca.........


Esta cancion se la dedico a mi princesa eterna
se te murio el amor que sentias por mi, pero para mi nunca se morira
el amor que siento por ti   Que lastima......

                     TE AMO LIDIA E. A.
                                 POR SIEMPRE