Sing sing death house (de Distillers)
(www.acordesytabs.com)
Tabber : Loki Bickle 

Standard Tuining 
 
NOTE:Strum pattern not shown 
 
Intro 
Just lightly put your hands over strings and make noises (harmonics and such) 
 
Intro/Verse 
e------------------------------------------------------- 
B------------------------------------------------------- 
G--11---------------------------------------11---- 
D--11----7-----10---9---10---9----10---9----11---- 
A---9----7-----10---9---10---9----10---9-----9--- 
E--------5------8---7----8---7-----8---7---------- 
 
 
Chorus 
e------------------------------------------------ 
B------------------------------------------------ 
G -------11---9----7----------7----9-------- 
D---9----11---9----7-----7----7----9---9--- 
A---9----9----7----5-----7----5----7---9--- 
E---7--------------------5-------------7--- 
 
 
Outro #1 
e--------------------------- 
B--------------------------- 
G----------------------11 
D---7------10---9------11 
A---7------10---9-------9 
E---5-------8---7-------- 
 
 
Outro #2 
e----------------------------------------------------- 
B---------------------------------------------------- 
G---------------------------------------------------- 
D---7----9----7----10----9----7----4-----------4 
A---7----9----7----10----9----7----4-----------4 
E---5----7----5-----8----7----5----2-----------2 
 
Order: 
Intro (harmonic part) 
 
Intro/Verse  x4 
 
chorus  x2 
 
Intro/Verse  x4 
 
chorus  x4 
 
Intro/Verse x2 
 
Outro #1  x3 
 
Outro #2 x1 
 
 
 
Thats about it.. if you have any questions, e-mail me at  
 
lokibickle999@hotmail.com..............PUNX NOT DEAD