Rotator (de Dizzy mizz lizzy)
(www.acordesytabs.com)
Stem alle strenge 1 hel tone ned.  
 
intro  
D||---------------------------|---------------------------|  
A||---------------------------|---------------------------|  
F||---------------------------|---------------------------|  
C||-----------6---6-4----4----|-----------6---6-4----4----|  
G||--4--7--4/----------7----7-|--3--7--3/----------7----7-|  
D||---------------------------|---------------------------|  
 
 
 
---------------------------|--------------------|---------------------------|  
---------------------------|--------------------|---------------------------|  
---------------------------|--------------------|---------------------------|  
-----------6---6-4----4----|--------------------|-----------6---6-4----4----|  
-----7--------------7----7-|-----4--7-----7--6--|--4--7--4/----------7----7-|  
--7-----7/-----------------|--6--------7--------|---------------------------|  
 
 
 
---------------------------|---------------------------|--------------------|  
---------------------------|---------------------------|--------------------|  
---------------------------|---------------------------|--------------------|  
-----------6---6-4----4----|-----------6---6-4----4----|--------------------|  
--3--7--3/----------7----7-|-----7--------------7----7-|-----4--7-----7--6--|  
---------------------------|--7-----7/-----------------|--6--------7--------|  
 
 
 
---------------------------|-------------------||  
---------------------------|-------------------||  
---------------------------|-------------------||  
-----------6---6-4----4----|--6----------------||  
--4--7--4/----------7----7-|--4----------------||  
---------------------------|-------------------||  
 
 
 
vers:  
D||----------------------------------|----------------------------------|  
A||----------------------------------|-----------------10-------10------|  
F||--6------9----9--11-------11-----|--6------9----9--9--------9-------|  
C||--6------9----9--11----x--11-----|--6------9----9--11----x--11------|  
G||--4------7----7--9--------9------|--4------7----7-------------------|  
D||----------------------------------|----------------------------------|  
 
 
 
-----------------------|--------------------------|------------------------|  
-----------------------|--------------5--4-----4--|------------------------|  
--6------9----9--11----|----11----11--------6-----|--8----6----6--6--6--8--|  
--6------9----9--11----|----11----11--------------|------------------------|  
--4------7----7--9-----|----9-----9---------------|--7----7----7--7--7--7--|  
-----------------------|--------------------------|--5----5----5--5--5--5--|  
 
 
 
----------------------|----------------------------------|  
----------------------|----------------------------------|  
----------------------|--6------9----9--11-------11-----|  
----9--9----9----9----|--6------9----9--11----x--11-----|  
----7--7----7----7----|--4------7----7--9--------9------|  
----5--5----5----5----|----------------------------------|  
 
 
 
----------------------------------|-----------------------|  
-----------------10-------10------|-----------------------|  
--6------9----9--9--------9-------|--6------9----9--11----|  
--6------9----9--11----x--11------|--6------9----9--11----|  
--4------7----7-------------------|--4------7----7--9-----|  
----------------------------------|-----------------------|  
 
 
 
--------------------------|------------------------|----------------------|  
--------------5--4-----4--|------------------------|----------------------|  
----11----11--------6-----|--8----6----6--6--6--8--|----------------------|  
----11----11--------------|------------------------|----9--9----9----9----|  
----9-----9---------------|--7----7----7--7--7--7--|----7--7----7----7----|  
--------------------------|--5----5----5--5--5--5--|----5--5----5----5----|  
 
 
 
-----------------------|--------------------||  
--5----4----4--4-------|--------------------||  
--4----4----4--4-------|----5---------------||  
--4----4----4--4----6--|----6----------x----||  
--------------------6--|----6---------------||  
--------------------4--|----4---------------||  
 
 
chorus:  
D||--------8----8----------|------------------------|--------8----8----------|  
A||--------8----8--9-------|---------9--------------|--------8----8--9-------|  
F||--------9------------9--|----8---------9p8-------|--------9------------9--|  
C||--11--------------------|------------------11----|--11--------------------|  
G||------------------------|------------------------|------------------------|  
D||------------------------|------------------------|------------------------|  
 
 
 
-----------------------|------------------------|------------------------|  
---------10------------|--------8----8--9-------|---------9----------x-x-|  
----8------------9p-8--|---------------------9--|----8---------9p8---x-x-|  
-----------------------|--11--------------------|--------------------x-x-|  
-----------------------|------------------------|--------------------x-x-|  
-----------------------|------------------------|------------------------|  
 
 
 
-------------------------|-------------------------|---------------------------|  
--7----7---7-7--7--7--9--|----9--8--7----7--7------|---------------------------|  
-------------------------|-------------------------|---------------------------|  
-------------------------|-------------------------|-----------6---5-4----4----|  
-------------------------|---------------------2-3-|--4--7--4/----------7----7-|  
-------------------------|-------------------------|---------------------------|  
 
 
 
-------------------||  
-------------------||  
-------------------||  
-------------------||  
--4----------------||  
-------------------||  
 
 
 
Solo:  
 
 
 
D||---------------------------|---------------------------|  
A||---------------------------|---------------------------|  
F||---------------------------|---------------------------|  
C||-----------6---6-4----4----|-----------6---6-4----4----|  
G||--4--7--4/----------7----7-|--3--7--3/----------7----7-|  
D||---------------------------|---------------------------|  
 
 
 
---------------------------|--------------------|---------------------------|  
---------------------------|--------------------|---------------------------|  
---------------------------|--------------------|---------------------------|  
-----------6---6-4----4----|-----4--------------|-----------6---6-4----4----|  
-----7--------------7----7-|--------7-----7--6--|--4--7--4-----------7----7-|  
--7-----7/-----------------|--6--------7--------|---------------------------|  
 
 
 
----------------------|-------------------------|-------------------------|  
----------------------|-------------------------|-------------------------|  
-------------x-x------|-------------------------|-------------------------|  
-------------x-x------|-------7-----------9-----|----------9--------9-----|  
--4----------x-x------|----7-----7-----7-----6--|-------6--------6--------|  
------------------5---|-------------5-----------|----5--------5--------7--|  
 
 
 
-------------------------|----------------------------|------------------------|  
-------------------------|----------------------------|------------------------|  
-------------------------|----------------------------|------------------------|  
-------7-----------7-----|--------10--10--------------|-------9----------9-----|  
----7-----7-----6--------|----11------------11--------|----7----------7--------|  
-------------7--------8--|----------------------8--9--|----------5----------7--|  
 
 
 
---------------------------|--------------------------|  
---------------------------|--------------------------|  
-------------9-------------|--------------------------|  
----------9-----8-8-8-8-8b-|--------7-----------7-----|  
-------7-------------------|-----5-----5-----5-----4--|  
----7----------------------|--3-----------3-----------|  
 
 
 
-------------------------|-------------------------|-------------------------|  
-------------------------|-------------------------|-------------------------|  
-------------------------|-------------------------|-------------------------|  
----------7--------7-----|-------5-----------7-----|-------8b-8b-8b----------|  
-------4--------4--------|----5-----5-----4--------|----9-----------9--------|  
----3--------3--------5--|-------------5--------6--|-------------------6--7--|  
 
Let ring 2 measures  
/  
------------------------|-------------------------|-------------------------|  
------------------------|-------------------------|-------------------------|  
------------------------|-------------------------|----------------------9--|  
-------7----------7-----|-------5----------7--x-x-|--------9----------9--9--|  
----5----------5--------|----7-----5--4~---7--x-x-|-----7----------7-----9--|  
----------3----------5--|------------------5--x-x-|--9--------5-------------|  
 
 
 
------------------|------------------||  
------------------|------------------||  
------------------|------------------||  
------------------|------------------||  
------------------|------------------||  
------------------|------------------||  
 
Outro  
E||---------------------------|---------------------------|  
B||---------------------------|---------------------------|  
G||---------------------------|---------------------------|  
D||-----------6---6-4----4----|-----------6---6-4----4----|  
A||--4--7--4/----------7----7-|--3--7--3/----------7----7-|  
E||---------------------------|---------------------------|  
 
 
 
---------------------------|--------------------|---------------------------|  
---------------------------|--------------------|---------------------------|  
---------------------------|--------------------|---------------------------|  
-----------6---6-4----4----|-----4--------------|-----------6---6-4----4----|  
-----7--------------7----7-|--------7-----7--6--|--4--7--4/----------7----7-|  
--7-----7/-----------------|--6--------7--------|---------------------------|  
 
 
 
---------------------------|---------------------------|--------------------|  
---------------------------|---------------------------|--------------------|  
---------------------------|---------------------------|--------------------|  
-----------6---6-4----4----|-----------6---6-4----4----|-----4--------------|  
--3--7--3/----------7----7-|-----7--------------7----7-|--------7-----7--6--|  
---------------------------|--7-----7/-----------------|--6--------7--------|  
 
 
 
-------|  
-------|  
-------|  
-------|  
--4---|  
 
 
D||----------------------|----------------------|----------------------|  
A||-----7-7-7-7----6--6--|-----7-7-7-7----6--6--|-----7-7-7-7----6--6--|  
F||-----7-7-7-7----6--6--|-----7-7-7-7----6--6--|-----7-7-7-7----6--6--|  
C||----------------7--7--|----------------7--7--|----------------7--7--|  
G||--5-------------------|--5-------------------|--5-------------------|  
D||-------------5--------|-------------5--------|-------------5--------|  
 
 
 
----------------------|----------------------|----------------------|  
-----7-7-7-7----6--6--|-----7-7-7-7----6--6--|-----7-7-7-7----6--6--|  
-----7-7-7-7----6--6--|-----7-7-7-7----6--6--|-----7-7-7-7----6--6--|  
----------------7--7--|----------------7--7--|----------------7--7--|  
--5-------------------|--5-------------------|--5-------------------|  
-------------5--------|-------------5--------|-------------5--------|  
 
 
 
----------------------|----------------------|----------------------|  
-----7-7-7-7----6--6--|-----7-7-7-7----6--6--|-----7-7-7-7----6--6--|  
-----7-7-7-7----6--6--|-----7-7-7-7----6--6--|-----7-7-7-7----6--6--|  
----------------7--7--|----------------7--7--|----------------7--7--|  
--5-------------------|--5-------------------|--5-------------------|  
-------------5--------|-------------5--------|-------------5--------|  
 
 
 
---------------||  
---------------||  
--7------------||  
---------------||  
---------------||  
---------------||  
 
 
Her er s?ormen:  
 
1xintro  
1xvers  
1xomkv? 
1xvers  
1xomkv? 
1xsolo  
2xomkv?(2. gang med anderledes tekst: "Rotator, Rotator")  
1x outro