Love me tender (de Elvis presley)
(www.acordesytabs.com)
Artist=                  this tab is straight forward
Song= 
By Paul Thompson  

G------------------------------------------------- 
D---------------------0-----0--------------------
A------3𦌿--------0--------32---0---0
E3---------------------------------------------

G-------------------------------------------------
D---------------------------------------0-------0-
A---3-------------------3-2---3--------0-----
E---------------------3--------------------------- 

G-------------------------------------------------
D----------------------------------22---2---2
A----3𦌼2-----3------------------------
E-------------------------------------------------- 

G--------------------------------------------------
D----2---2---2----------2---0---------0------2--
A---------------------------------3----------------
E---------------------------------------------------

G----------------------------------------------------
D----2----2----2----3----2------0-----------0----
A----------------------------------------0----------
E----------------------------------------------------

G---------------------------------------------------
D--------------2------0----------------------------
A----3----2-------------------3--------------------
E----------------------------------------------------

         Please rate this tab well enjoy...