Sarah Yellin (de 3 Doors Down)
(www.acordesytabs.com)
Sarah Yellin'
Artist: 3 Doors Down
Tabbed By: nonnitoni

Intro

E|------------------------|
A|--------------------2---|
D|----------------5-4-2---|  x8
G|--4----4----4---5-4-2---|
B|--4----4----4---3-2-----|
E|0-2--0-2--0-2-----------|


Part 1

E|-----------------------------|
A|-----------------------------|
D|-----------------------------|   x4
G|-----------------------------|
B|------------3-3-2-2-3-2-0----|
E|2-2-2-2-2-2------------------|


Pre chorus

E|---------------------------------------|
A|---------------------------------------|
D|-------------------5-5-4-4-------------|
G|4-4-x-x-x-x-x-x-4--5-5-4-4-------------|
B|4-4-x-x-x-x-x-x-4--3-3-2-2-------------|
E|2-2-x-x-x-x-x-x-2----------------------|


Chorus

E|---------------------------------------|
A|---------------------------------------|
D|---------------------------------------|   x4
G|7-7-2-2-4------------------------------|
B|7-7-2-2-4------------------------------|
E|5-5-0-0-2------------------------------|



Part 2

E|-----------------------------|
A|-----------------------------|
D|-----------------------------|   x4
G|-----------------------------|
B|------------3-3-2-2-3-2-0----|
E|2-2-2-2-2-2------------------|


Thats about it but there is a last chorus and a solo which
i dont know how its played (the solo) but this is all i know
so just listen to the song and if tou figure out the solo just let me know ok?
my e-mail is: nonni_toni@hotmail.com

C'ya