Cheeze (de Less than jake)
(www.acordesytabs.com)


Band: Less Than Jake
Song: Cheeze
Album: (?) i got it on "The Pez Collection" which is a kind of best of album 
- says its from a cheese shaped vinyl.
Tabbed by : Alex - savagegump@hotmail.com

Intro:

G:------------------------
D:------------------------
A:--------------------5---
E:---5--------------------

Chorus:

G:-----------------------
D:-----------------------
A:---0000-0000------5555-
E:-------------2222------

G:-----------------------
D:-----------------------
A:---0000-0000------5555-
E:-------------3333------

Verse:

G:-----------------------
D:-----------------------
A:---(00)0-4--0-2--5-4-5-   (*)
E:-----------------------

G:---------------------
D:---------------------
A:---0-0-4--0-2--7-5-4-
E:---------------------

G:---------------------
D:---------------------
A:---000-4--0-2--5-4-5-
E:---------------------

G:---------------------
D:---------------------
A:---000-4--0-2------5-
E:---------------------

* The second time you play it theres a pause you miss out the bit in 
brackets

Order:
Intro - chorus - verse x2 - chorus x2 - verse x2 - chorus x2

I think this is mostly right but feel free to make corrections.

You can contact me on savagegump@hotmail.com