Du Hast (de Rammstein)
(www.acordesytabs.com)
Author/Artist: Rammstein 
Title: Du Hast 
Tabbed by:Jake Livingston


Intro:
E----------------------------------------------|  
B----------------------------------------------|  
G----------------------------------------------|  
D-75-2--2--2-2-2--2-7-5-2--2--2--2-2-2--2-2-2-|  
A-75-2--2--2-2-2--2-7-5-2--2--2--2-2-2--2-2-2-|  
E-53-0--0--0-0-0--0-5-3-0--0--0--0-0-0--0-0-0-|  
      pm............]    pm...................]        

|------------------------|
|------------------------|
|------------------------|
|-5/7-7--7--7-7-7--7-7-7-|
|-5/7-7--7--7-7-7--7-7-7-|
|-3/5-5--5--5-5-5--5-5-5-|
.pm...............]


Verses:
E-----------------------------------------------|
B-----------------------------------------------|
G-----------------------------------------------|
D--75-2--2--2-2-2--2-7-5-2--2--2--2-2-2--2-2-2-|
A--75-2--2--2-2-2--2-7-5-2--2--2--2-2-2--2-2-2-|
E--53-0--0--0-0-0--0-5-3-0--0--0--0-0-0--0-0-0-|
        pm............]    pm...................]


E-------------------------|
B-------------------------|
G-------------------------|
D--5/7-7--7--7-7-7--7-7-7-|
A--5/7-7--7--7-7-7--7-7-7-|
E--3/5-5--5--5-5-5--5-5-5-|
       pm................]

E----------------------------------------------------|
B----------------------------------------------------|
G----------------------------------------------------|
D-7/10-10--10--10-10-10--10-10-9--9--9--9-9-9--9-9-9-|
A-7/10-10--10--10-10-10--10-10-9--9--9--9-9-9--9-9-9-|
E-5/8---8---8---8--8--8-- 8--8-7--7--7--7-7-7--7-7-7-|
       pm..................]     pm.................]

There ya go. Have fun