Everlasting Gaze (de Smashing Pumpkins)
(www.acordesytabs.com)


smashing pumpkins

everlasing gaze


-----------------------------------
-----------------------------------
-----------------------------------
-----------------------------------
---------0---1---------------------
-0---0-----------1--------1--0-----


---0----0----0----0----0----0------
---5----5----5----5----5----5------
-----------------------------------
-----------------------------------
-----------------------------------
-----------------------------------

you know i'm,  you know i'm not dead .....

sorry don't know the rest