Cold (de Static X)
(www.acordesytabs.com)
Artist: Static-X
Song: Cold
Tuning: CGCFAD
Tabliture by: Shane Gubersky

Main Riff:2x
D: ----------------------------------------------
A: ----------------------------------------------
F: ----------------------------------------------
C: 0--0-0--0--0--0-0------0--0-0--0--0--0-0------
G: 0--0-0--0--0--0-0------0--0-0--0--0--0-0------
C: 0--0-0--0--0--0-0------0--0-0--0--0--0-0------

Chorus:2x
D: ------------------------------------------------------------
A: ------------------------------------------------------------
F: 7------9-10-11-13-12----12----7------9-10-11-13-12----13----
C: ------------------------------------------------------------
G: 5------7-8-9-11-10----10----5------7-8-9-11-10----11--------
C: ------------------------------------------------------------