Wisconsin Death Trip (de Static X)
(www.acordesytabs.com)
band:    Static-X 
song:    Wisconsin Death Trip 
album:   Wisconsin Death Trip 
tuning:  C F A# D# G C 
tabbed by:ibanez27

INTRO    
|-x-x---x-x-x-x-| |-x-x---x-x-x---| 
|-x-x---x-x-x-x-|   play 7x|-x-x---x-x-x---| 
|-x-x---x-x-x-x-|    then:|-x-x---x-x-x---| 
|-x-x---x-x-x-x-| |-x-x---x-x-x---| 
|-x-x---x-x-x-x-| |-x-x---x-x-x-7-| 
|-x-x---x-x-x-x-| |-x-x---x-x-x-0-| 

VERSE 1 play 12x 
|---------------| 
|---------------| 
|---------------| 
|-7---------7---| 
|-7-7---7-7-7-7-| 
|-5-0---0-0-5-0-| 

BRIDGE - Bass only 
Play this right before the next verse 
  |-3-| |-3-|(triplets)
|-x-x-x-x-x-x-| 
|-x-x-x-x-x-x-| 
|-x-x-x-x-x-x-| 
|-x-x-x-x-x-x-| 
|-x-x-x-x-x-x-| 
|-x-x-x-x-x-x-|  

VERSE 2 play Verse 1 8x 

CHORUS 1 play 8x 
|---------------| 
|---------------| 
|---------------| 
|-8-7---8-7-8-7-| 
|-8-7---8-7-8-7-| 
|-6-5---6-5-6-5-| 

BRIDGE 2  
|-x-x---x-x-x-x-| |-x-x---x-x-x---| 
|-x-x---x-x-x-x-|  play 3x|-x-x---x-x-x---| 
|-x-x---x-x-x-x-|   then:             |-x-x---x-x-x---| 
|-x-x---x-x-x-x-| |-x-x---x-x-x---| 
|-x-x---x-x-x-x-| |-x-x---x-x-x-7-| 
|-x-x---x-x-x-x-| |-x-x---x-x-x-0-| 

VERSE 3 same as Verse 2 (play Verse 1 8x)

CHORUS 2 
 play|---------------|
 Chorus 1    |---------------| 
 4x then|---------------| 
 play |-3-2---3-2-3-2-| 
 this 4x:|-3-2---3-2-3-2-| 
 |-1-0---1-0-1-0-|  
 
INTERLUDE play 9x 
|--------------------------| 
|--------------------------| 
|--------------------------| 
|--------------------------| 
|--------------------------| 
|-0--0--0--0-0--0--0-0--0--| 
  pm..................... 

|-12--12--12--12-12--12--12-12--12-| 
|----------------------------------| 
|----------------------------------| 
|----------------------------------| 
|----------------------------------| 
|----------------------------------| 

play 8x 
|--------------------------| 
|--------------------------| 
|--------------------------| 
|--------------------------| 
|--------------------------| 
|-0--0--0--0-0--0--0-0--0--| 
  pm..................... 

CHORUS 3 play Chorus 1 8x 

VERSE 4 play Verse 1 8x 

OUTRO play 7x 
|-------------------------------| 
|-------------------------------| 
|-------------------------------| 
|-------------------------------| 
|-------------------------------| 
|-0--0--0--0-0--0--0-0--0-0-0-0-| 
  pm........................... 

End on 
|--------------------------| 
|--------------------------| 
|--------------------------| 
|-2--2--2--2-2--2--2-2--2--| 
|-2--2--2--2-2--2--2-2--2--| 
|-0--0--0--0-0--0--0-0--0--| 
  pm.....................

That's it!  Not too hard, but if you have any questions, changes, 
suggestions, email me at da_haus03@yahoo.com