Makes No Difference (de Sum 41)
(www.acordesytabs.com)
                             Sum 41

                      "Makes No Difference"
Tabbed by: Chris Chandler
E-mail: WakeMaker16@cs.com

Intro:
e--------------------------------------------------------|
B--------------------------------------------------------|
G---8----------------------------------------------------|
D---8--6h8---8-8-8---10------------11-11-----------------|
A---6--------8-8-8---10---8h10-----11-11--10-------------|
E------------6-6-6---8-------------11-11--11-------------|

Everyone Comes in: 

Guitar 1
e-------------------------------------------------------|
B-------------------------------------------------------|
G---8---------------------------------------------------|
D---8--6h8---8-8-8---10----------11-11------------------|
A---6--------8-8-8---10---8h10---11-11--10--------------|
E------------6-6-6---8-----------11-11--11--------------|

Guitar 2
    E E   G# G# G    E E    F# F# G
e-------------------------------------------------------
B-------------------------------------------------------listen to the song
G---8-8----13-13-12---8-8----10-10-12-------------------to find out how many
D---8-6----13-13-12---8-8----10-10-12-------------------times you need to 
A---6-6----11-11-10---6-6-----8--8-10-------------------repeat the E
E-------------------------------------------------------

Verse 1:
Guitar 1
e-|---------------------------------------------------------------------|
B-|---------------------------------------------------------------------|
G-|--8-8-8-8-8-8-8-8--8-8-8-8-8-8-8-8--5-5-5-5-5-5-5-5------------------| Play 4
D-|--8-8-8-8-8-8-8-8--8-8-8-8-8-8-8-8--5-5-5-5-5-5-5-5--6-6-6-6-6-6-6-6-|
A-|--6-6-6-6-6-6-6-6--5-5-5-5-5-5-5-5--3-3-3-3-3-3-3-3--6-6-6-6-6-6-6-6-|
E-|-----------------------------------------------------4-4-4-4-4-4-4-4-|
  pm. . . . . . . . . . . . . . . . . . . . . . . . . . . . . . . . . . 

Guitar 2
e-|---------------------------------------------------------------------|
B-|---------------------------------------------------------------------| Wait f
G-|--8-8-8-8-8-8-8-8--8-8-8-8-8-8-8-8--5-5-5-5-5-5-5-5------------------| to pla
D-|--8-8-8-8-8-8-8-8--8-8-8-8-8-8-8-8--5-5-5-5-5-5-5-5--6-6-6-6-6-6-6-6-| play t
A-|--6-6-6-6-6-6-6-6--5-5-5-5-5-5-5-5--3-3-3-3-3-3-3-3--6-6-6-6-6-6-6-6-|
E-|-----------------------------------------------------4-4-4-4-4-4-4-4-|
not palm muted

Chorus: both Gtrs
E-|---------------------------------------------------------------------------|
B-|---------------------------------------------------------------------------| 
G-|-8-8-8-8--8-8-8-8----------------------------------------------------------|
D-|-8-8-8-8--8-8-8-8--3-3-3-3--3-3-3-3--6-6-6-6--6-6-6-6--9-9-9-9-8-8-8-8-8-8-|
A-|-6-6-6-6--6-6-6-6--3-3-3-3--3-3-3-3--6-6-6-6--6-6-6-6--9-9-9-9-8-8-8-8-8-8-|
E-|-------------------1-1-1-1--1-1-1-1--4-4-4-4--4-4-4-4--7-7-7-7-6-6-6-6-6-6-|

Bridge:
Guitar 1
e-|----------------------------------------------------------------|
B-|----------------------------------------------------------------|
G-|-8-8-8-8--8-8-8------------------5-5-5-5--5-5-5-----------------|
D-|-8-8-8-8--8-8-8--8-8-8-8--8-8-8--5-5-5-5--5-5-5--6-6-6-6--6-6-6-|
A-|-6-6-6-6--6-6-6--8-8-8-8--8-8-8--3-3-3-3--3-3-3--6-6-6-6--6-6-6-|
E-|-----------------6-6-6-6--6-6-6------------------4-4-4-4--4-4-4-|

Guitar 2
?????

Verse 2:
Guitar 1
e-|---------------------------------------------------------------------|
B-|---------------------------------------------------------------------|
G-|--8-8-8-8-8-8-8-8--8-8-8-8-8-8-8-8--5-5-5-5-5-5-5-5------------------| Play 4
D-|--8-8-8-8-8-8-8-8--8-8-8-8-8-8-8-8--5-5-5-5-5-5-5-5--6-6-6-6-6-6-6-6-|
A-|--6-6-6-6-6-6-6-6--5-5-5-5-5-5-5-5--3-3-3-3-3-3-3-3--6-6-6-6-6-6-6-6-|
E-|-----------------------------------------------------4-4-4-4-4-4-4-4-|
  pm. . . . . . . . . . . . . . . . . . . . . . . . . . . . . . . . . . 

Guitar 2
e-|---------------------------------------------------------------------|
B-|---------------------------------------------------------------------| Wait f
G-|--8-8-8-8-8-8-8-8--8-8-8-8-8-8-8-8--5-5-5-5-5-5-5-5------------------| to pla
D-|--8-8-8-8-8-8-8-8--8-8-8-8-8-8-8-8--5-5-5-5-5-5-5-5--6-6-6-6-6-6-6-6-| play t
A-|--6-6-6-6-6-6-6-6--5-5-5-5-5-5-5-5--3-3-3-3-3-3-3-3--6-6-6-6-6-6-6-6-|
E-|-----------------------------------------------------4-4-4-4-4-4-4-4-|
not palm muted

Chorus: both Gtrs
E-|-----------------------------------------------------------------------------
B-|-----------------------------------------------------------------------------
G-|-8-8-8-8--8-8-8-8------------------------------------------------------------
D-|-8-8-8-8--8-8-8-8--3-3-3-3--3-3-3-3--6-6-6-6--6-6-6-6--9-9-9-9-8-8-8-8-8-8-|
A-|-6-6-6-6--6-6-6-6--3-3-3-3--3-3-3-3--6-6-6-6--6-6-6-6--9-9-9-9-8-8-8-8-8-8-|
E-|-------------------1-1-1-1--1-1-1-1--4-4-4-4--4-4-4-4--7-7-7-7-6-6-6-6-6-6-|

Solo:
Guitar 1
e-|--------------------------------------|
B-|--------------------------------------|       Play 4X
G-|8-8-8-8--8-8-8-8----------------------|
D-|8-8-8-8--8-8-8-8-x-x-8-8-8-8--6-6-6-6-|
A-|6-6-6-6--5-5-5-5-x-x-8-8-8-8--6-6-6-6-|
E-|-----------------x-x-6-6-6-6--4-4-4-4-|

Guitar 2
?????

Verse 3:
Guitar 1
e-|-------------------|
B-|-------------------|       Play 24X
G-|-3--3-3-3--3-3-3-3-|
D-|-3--3-3-3--3-3-3-3-|
A-|-1--1-1-1--1-1-1-1-|
E-|-------------------|
 pm. . . . . . . . . .

Guitar 2
e-|-------------|
B-|---8---------|       Play 5X
G-|-----9-------|
D-|-------10----|
A-|-------------|
E-|-------------|


After: both Guitars
e-|---------------|
B-|---------------|      Picking scrap
G-|--xxxx-///////-|
D-|--xxxx-///////-|
A-|--xxxx-///////-|
E-|---------------|

Chorus: both Guitars
E-|---------------------------------------------------------------------------|
B-|---------------------------------------------------------------------------| 
G-|-8-8-8-8--8-8-8-8----------------------------------------------------------|
D-|-8-8-8-8--8-8-8-8--3-3-3-3--3-3-3-3--6-6-6-6--6-6-6-6--9-9-9-9-8-8-8-8-8-8-|
A-|-6-6-6-6--6-6-6-6--3-3-3-3--3-3-3-3--6-6-6-6--6-6-6-6--9-9-9-9-8-8-8-8-8-8-|
E-|-------------------1-1-1-1--1-1-1-1--4-4-4-4--4-4-4-4--7-7-7-7-6-6-6-6-6-6-|

Bridge 3:
Guitar 1
e-|--------------------------------------------------------------------|
B-|--------------------------------------------------------------------|      Pl
G-|-8-8-8-8--8-8-8------------------5-5-5-5--5-5-5---------------------|
D-|-8-8-8-8--8-8-8--8-8-8-8--8-8-8--5-5-5-5--5-5-5--6-6-6-6--6-6-6-----|
A-|-6-6-6-6--6-6-6--8-8-8-8--8-8-8--3-3-3-3--3-3-3--6-6-6-6--6-6-6-----|
E-|-----------------6-6-6-6--6-6-6------------------4-4-4-4--4-4-4-----|

Guitar 2
?????

Outro:
Guitar 1
e-------------------------------------------------------
B-------------------------------------------------------
G---8---------------------------------------------------
D---8--6h8--8-8-8---10----------11-11------------------
A---6-------8-8-8---10---8h10---11-11--10--------------
E-----------6-6-6---8-----------11-11--11--------------

Guitar 2
    E E   G# G# G    E E    F# F# G
e-------------------------------------------------------
B-------------------------------------------------------listen to the song
G---8-8----13-13-12---8-8----10-10-12-------------------to find out how many
D---8-6----13-13-12---8-8----10-10-12-------------------times you need to 
A---6-6----11-11-10---6-6-----8--8-10-------------------repeat the E
E-------------------------------------------------------


This tab was created by me, and just give me credit if you want to use it.
This tab was also created with some previous existing stuff tabbed by Zach Tembl