Pain For Pleasure (de Sum 41)
(www.acordesytabs.com)
Song: Pain for Pleasure (song 13)
Artist: Sum 41
Album: All Killer No Filler
Tabbed by: Joey Rotella
Tuning: Dropped D (D a d g b e)

     Intro (bass comes in later) guitar 2 written in once only ( played last tim

e------------------------------|
b------------------------------|
g------------------------------|
d--(2)--(4)--(5)--(7)--(9)-----| repeat several times
a--7-777-777-777777------------|
D------------------------------|
   *(muted)
                                                      1st time only
e--------------------------------------------------|----------------|
b--------------------------------------------------|----------------|
g--9-9--------------7-7-------------5-5------------|-4-4------------| x2
d--9-9--------------7-7-------------5-5------------|-4-4------------|
a--7-7---7/10-9-7---5-5--7/10-9-7---3-3--7/10-9-7--|-2-2--7/10-7-9--|
D--------------------------------------------------|----------------|

    guitar 2 (2nd time only)

e--------------------------------------------------------------------|
b--------------------------------------------------------------------|
g--(9)-(9)-----------(7)-(7)-----------(5)-(5)-----------------------|
d--(9)-(9)--7/9-7-5--(7)-(7)--7/9-7-5--(5)-(5)--7/9-7-5-7-9-7-5-4----|
a--(7)-(7)-----------(5)-(5)-----------(3)-(3)-----------------------|
D--------------------------------------------------------------------|

       verse
e----------------------------------------------------------------------|
b----------------------------------------------------------------------|
g----------------------------------------------------------------------| repeat
d----------------------------------------------------------------------|
a--7-777-777-777777--5-555-555-555555--3-333-333-333333--2-222-222--5--|
D----------------------------------------------------------------------|
   * *** *** ******  * *** *** ******  * *** *** ******  * *** **

   chorus(strum)

e---------------------------|
b---------------------------|
g--9----7----5----4----7----| repeat
d--9----7----5----4----7----|
a--7----5----3----2----5----|
D---------------------------|

      outro

e------------------|
b------------------|
g--9----9-7-9------|
d--9----9-7-9------|
a--7----7-5-7------|
D------------------|

 and that is the song. its really pretty easy. it took me about a half an hour t
 sum 41 is the best punk rock band out there and i will have more songs by them