36 (de System Of A Down)
(www.acordesytabs.com)
-=36=-System of a Down
======
tabbed by Javier Rodríguez
(C-G-C-F-A-D)


A
1:----0-----0-----0-----0-|----0-----0-----0------|
2:-0-----3-----2-----4----|-0-----3-----2-----2/6-|
3:------------------------|-----------------------|
4:------------------------|-----------------------|
5:------------------------|-----------------------|
6:------------------------|-----------------------|


B
1:-------------------------|
2:-------------------------|
3:-------------------------|
4:-------------------------|
5:-6^5^0-6^5^0-6^5^0-6^5^0-|
6:-6^5^0-6^5^0-6^5^0-6^5^0-|


C
1:-0-0--0-0--0-0--0-0-|-0-0--0-0--0-0--0-0-|-0-0--0-0--0-0--0-0-|-0-0--0-0--0-0-
2:-0-0--3-3--2-2--4-4-|-0-0--3-3--2-2--6-6-|-0-0--3-3--2-2--4-4-|-0-0--3-3--2-2-
3:--------------------|--------------------|--------------------|---------------
4:--------------------|--------------------|--------------------|---------------
5:--------------------|--------------------|--------------------|---------------
6:--------------------|--------------------|--------------------|---------------


D
1:-0-0--0-0--0-0--0-0-|
2:-0-0--3-3--2-2--4-4-|
3:--------------------|
4:--------------------|
5:--------------------|
6:--------------------|


E
1:-0-0--0-0--0-0--0---|
2:-0-0--3-3--2-2--2/6-|
3:--------------------|
4:--------------------|
5:--------------------|
6:--------------------|


ORDER:
=====

A
B 8x
C
B 8x
D
B 2x
E
B 2x