In My Life (de Beatles)
(www.acordesytabs.com)
The Beatles 
Rubber Soul 1965
In My Life: Lennon/McCarthy 

Intro.  x2
e-|--------5------------------4-------------------------|
B-|---2--------2----3----5------------------------------|
G-|-----------------------------------------------------|
D-|-----------------------------------------------------|
A-|-----------------------------------------------------|
E-|-----------------------------------------------------|



            A                A7        D   Dm         A
There are places I'll remember    all my li--ife though some have changed,

        A                A7            D   Dm      A
Some forever not for better,    some have go--one and some remain.

            F#m              D             G                     A
All these places had their moments, with lovers and friends I still can recall,

          F#m                B7        Dm            A                  
Some are dead and some are living, in my life I've loved them all.


e-|--------5------------------4-------------------------|
B-|---2--------2----3----5------------------------------|
G-|-----------------------------------------------------|
D-|-----------------------------------------------------|
A-|-----------------------------------------------------|
E-|-----------------------------------------------------|

            A           A7             D             Dm         A
But of all these friends and lovers,   there is no one compares with you,

           A                  A7          D       Dm      A
And these memories lose their meaning,   when I think of love as something new.

          F#m                     D           G                      A
Though I know I'll never lose affection for people and things that went before,

   F#m                              B7           Dm            A               
I know I'll often stop and think about them, in my life I'll love you more.


(Harpsichord solo)

   A             A7          D          Dm          A

   A             A7          D          Dm          A

         

   F#m                    D           G                      A
Though I know I'll never lose affection for people and things that went before,

   F#m                             B7           Dm            A               
I know I'll often stop and think about them, in my life I'll love you more.


e-|--------5------------------4-------------------------|
B-|---2--------2----3----5------------------------------|
G-|-----------------------------------------------------|
D-|-----------------------------------------------------|
A-|-----------------------------------------------------|
E-|-----------------------------------------------------|



   Dm                     A      
In my life I'll love you more.

Outro.

e-|--------5------------------4--------4----2----4---5--|
B-|---2--------2----3----5---------------------------5--|
G-|-----------------------------------------------------|
D-|-----------------------------------------------------|
A-|-----------------------------------------------------|
E-|-----------------------------------------------------|