Prison Song Live Outro (de System Of A Down)
(www.acordesytabs.com)
Hello !!

Here is the right version of the Outro of System of a Down's 
Prison Song live at Lowlands !


The Tab that is already in here, is right, but not 
exactly the same like the live version.

Because the Guitarist starts with Dm (as you canns ee at the vid) !!


OK, here is the 100 % right Tab :
            
                Dm
e|------1-----3--1--0--1--------------
B|---3-----3--------------------------
G|------------------------------------
D|-0----------------------------------
A|------------------------------------
E|------------------------------------
       Bb        C
e|------------------------------------
B|-----3---------5-------------------
G|---3---3-----5---5----------------
D|------------------------------------
A|-1---------3-----------------------
E|------------------------------------

This you only play on and on !


OK, have Fun......

Lyrics (maay not be right, but nearly)
    Dm         Bb         C         Dm
Just when you make your way back home
I found sometime to be aloooonnnnee
I go to see the place once more
Just like a thousand mile be paaaaarrrttt




Have fun and come to visit me :


http://again.at/heffivids



Thanx



heffi666@web.de