Shame (de System Of A Down)
(www.acordesytabs.com)
Title: Shame
Album: System Of A Downs upcoming album
Transcribed by: Billy Donovan
Email: master_billy16@hotmail.com

This awesome song was highly requested so I tabbed it.
DADGBE Tuning (Drop D)
I'm pretty sure this is 100% correct


Intro
-8-8---8---8-9-----------------------------------------------------------
-----8---8---------------------------------------------------------------
-------------------------------------------------------------------------
-------------------------------------------------------------------------
-------------------------------------------------------------------------
-------------------------------------------------------------------------

(Verse)Just do that same thing for awhile then it goes to the next riff 
which is still
the verse
-------------------------------------------------------------------------
-------------------------------------------------------------------------
-------------------------------------------------------------------------
-x11-x11-x11-x11-x11-----------------------------------------------------
-x11-x11-x11-x11-x11-----------------------------------------------------
-x11-x11-x11-x11-x11-----------------------------------------------------


-8-8-8-8-9------|--8---8---8---8-9---------------------------------------
-8-8-8-8--------|----8---8---8-------------------------------------------
----------------|--------------------------------------------------------
-------4 times--|-------------------4 times------------------------------
----------------|--------------------------------------------------------
----------------|--------------------------------------------------------

Chorus
-------------------------------------------------------------------------
-------------------------------------------------------------------------
-------------------------------------------------------------------------
-11-11-11-11-12----------------------------------------------------------
-11-11-11-11-12----------------------------------------------------------
-11-11-11-11-12----------------------------------------------------------

Verse 2
-------------------------------------------------------------------------
-------------------------------------------------------------------------
-------------------------------------------------------------------------
-x11-x11-x11-x11-x11-----------------------------------------------------
-x11-x11-x11-x11-x11-----------------------------------------------------
-x11-x11-x11-x11-x11-----------------------------------------------------


Bridge

The guitar comes in after the bass does the riff 8 times
-------------------------------------------------------------------------
-------------------------------------------------------------------------
-------------------------------------------------------------------------
-------------------------------------------------------------------------
-------------------------------------------------------------------------
-17(16)--18(16)--20(16)--22(16)---x2 times-------------------------------

Outro
-------------------------------------------------------------------------
-------------------------------------------------------------------------
-------------------------------------------------------------------------
-0-0-11-0-0-11-0-0-11-0-0-11-12------------------------------------------
-0-0-11-0-0-11-0-0-11-0-0-11-12------------------------------------------
-0-0-11-0-0-11-0-0-11-0-0-11-12------------------------------------------
Thats it pretty easy