X (de System Of A Down)
(www.acordesytabs.com)
tune down to drop d 

----------------------------------------------------------------------
----------------------------------------------------------------------
--5--7--8--7--------------------------------------------------------------
----------------------------------------------------------------------
----------------------------------------------------------------------
----------------------------------------------------------------------
repeat this 8 times then.....

----------------------------------------------------------------------
----------------------------------------------------------------------
------------------------9---10-------------------------------------------
--0--0--0--0--0--0-------10---11------------------------------------------------
--0--0--0--0--0--0----------------------------------------------------------
--0--0--0--0--0--0---------------------------------------------------------
then....

----------------------------------------------------------------------
----------------------------------------------------------------------
----------------------------------------------------------------------
-000000000000000000000000-------------------------------------------------------
-000000000000000000000000-------------------------------------------------------
-000000000000000000000000-------------------------------------------------------

play this really fast then.......

----------------------------------------------------------------------
----------------------------------------------------------------------
----------------------------------------------------------------------
--0--2--3--2--0--2--3--2------------------------------------------------------
--0--2--3--2--0--2--3--2------------------------------------------------------
--0--2--3--2--0--2--3--2------------------------------------------------------

just repeat everything from up top after that and tehn you get to the
slow part that sounds like this.........

----------------------------------------------------------------------
--------------17/--17/------------------------------------------------------
----------------------------------------------------------------------
----------------------------------------------------------------------
----------------------------------------------------------------------
----------------------------------------------------------------------

and that is the whole song:) its 100% correct.