Lady Madonna 2 (de Beatles)
(www.acordesytabs.com)
The Beatles
Lady Madonna
Tabbed by neo_roark

Note: This version is really hard to learn the finger picking, 
watch for the unnatural unrepetitive groove. Good luck 

  intro
e--------------------------------------------------------------|
B--------------------------------------------------------------|
G------------------2------------------2-------------2-2--------|
D----------0-0-3h4------------0-0-3h4-----------0-0------------|
A--0-0-3-4------------0-0-3-4-----------0-0-3-4----------------|
E--------------------------------------------------------------|
                     chorus  
e----------------->-------------------------------------------0|
B----------------->-2-2---0-0---------2-2--0-------------1/2---|
G--2--4--6-------->-0-0-------2-------0-0------2---------------|
D--3--5--7-------->---------0-0-3-4----------4-0-0-3-4---------|
A----------------->-0-0-3-4-----------0-0--3-4-----------0----3|
E-----------0-3-4->--------------------------------------------|
                        first time        second time   
e----2-0--------------|-third time------<-fourth time to outro-|
B--2-----2----------0-|-----------------<----------------------|
G-------------2-2---0-|-----------------<----------------------|
D----0-0-2-2--3-3-5---|----------repeat-<----------------------|
A--4------------------|-----------------<---0-0-0--------------|
E---------------------|-0-3-4-----------<----------------------|
             verse                                first time 
e--------->--------------------------------------|--------0----|
B--------->--3-3--3-3--3-3--3-3--3---------------|1-1-1-3---1--|
G--------->--5-5--5-5--5-5--5-5--4---------------|0-0-0-----2--|
D—-------->--0-0--------------------------0------|-------------|
A--------->-------3-3--2-2--0-0-----0-2-3----0-2-|3-2-0-----0--|
E--------->----------------------3----------3----|-------------|
                           second time                to chorus
e------------------------<-------------------------------------|
B------------------------<--1---3--0--3----------3-------------|
G------------------------<--0---2-----1-----------0h1----------|
D------0-2--------repeat-<-------------------------------------|
A--2-3-----0-2-3---------<--3-----------------0h2--------------|
E------------------------<------2-----0--0--0------------------|
   outro
e---------5-5-5-5--5-5----5-----5-----5--5---------------------|
B---------2-2-2-2--3-3----3-----4-----3--2---------------------|
G--------------------------------------------------------------|
D--------------------------------------------------------------|
A--0-0-0--0-0-0-0--2-2--2----2--3--0--2--0---------------------|
E--------------------------------------------------------------|