Ala Delta (de Divididos)
(www.acordesytabs.com)
INTRO 

G--------------------------------------------------
D----------------------------------------------------
A---------------------------------------------------- 
E-0-0-0-0--0-0-0-0-0--0-0-0--0-0-0-0-0-0-0

DESPUES HACE:
G----------------------------------------------------
D--------------5---------------------------------- 
A----7----5-----------------------------------------
E----------------------0-0-0-0-0-0-0-0------------ 

 BASE (UNA CHICA EN EL CIELO.....) TODO ESTO 4 VECES

G---------9---------9---------------9----------9----------
D------------------------------------------------------------ 
A-7--7-------7-7---------7--7---------7------------------
E-----------------------------------------------------------
           
G----------------------------------------------------
D---------------------------------------------------- 
A-5-5-5-5-5-5-------7----------------------------------
E----------------------------5-5-5-5-5--5-5-5---------- 

/////////////////////-----////////////////////////////////
---------------------------------------------------
D--------------------------------------------------- 
A---------------------------------------------------
E-5-5-5-5-5--5-5-5-5-5-------33333333333------------0-0-0-0-0-0-0-0-- 
Y LOS PIBES REMONTABAN BARRILETES.....

DEVUELTA INTRO 

BASE, PERO DESPES DE TOCAR LAS OCTAVAS HACE ESTAS ESCALAS:
1ERO ESTA:

G------------------------------------------------------------------
D-6-6-6--7-7-7--8-8-8--9-9-9----888--777--666-------------------- 
A----7-7-7--9-9--------------------------------------------------------------999--777---------
E------------------------------------------------------------
----------------------------------------
2DO ESTA:
G-------------------------------------------666--777-------------
D---------------------6-6-6--7-7-7--8-8-8--9-9-9-------------------------- 

A----7-7-7--9-9-9------------------------------------------------------------
E--------------------------------------------------------------------------------

BUENO, CUALQUIER DUDA O PREGUNTA MANDENME UN MAI A NPASETTI@USA.NET
DISFRTENLO
NICOLAS PASETTI

<-----------------