Hotel california acoustic (de Eagles)
(www.acordesytabs.com)

this is not exact to the song but it sounds really good on an 
accoustic.

intro/verse
     Bm             F#              A              E   
e)-------------------------------------------------------------------
B)----------3--------------------------2-----------------------------
G)------4-----4-----------3--------2-----2------------1--------------
D)----4---4-----------4----------2---2------------2------------------
A)--2---------------4---4------0----------------2---2----------------
E)----------------2---------------------------0----------------------

      G             D               Em              F#
e)------------------------2------------------------------------------
B)--------------------3----------------------------------------------
G)----------0-------2---2----------------0---------------3----------
D)------0-----0---0------------------2-----2---------4---------------
A)----2---2------------------------2---2-----------4---4-------------
E)--3----------------------------0---------------2-------------------

just repeat that for the verse

the chorus is strumed,

the chords are:  

G       D
F#      Bm
G       D
Em      F#  

thats it, enjoy

mail me @ barry_fallon2000@hotmail.com