Mascara (de Deftones)
(www.acordesytabs.com)

Hey the other tab sounded a little weird when i played it for me this way worked better but use whatever one u want.

Verse:

G|---------------------------------|
D|---------------------------------|
A|----0-----4----------------------|
D|--6-----4---4----4-4--3-4-4------|

Chorus:

G|----------------------------------------|
D|----------------------------------------|
A|----------------------------------------|
D|--7-7-7-7-7-7h9h10-7--4-4-4-3-4-4-3-4---|

Outro:

G|-------------------------------------------------|
D|-------------------------------------------------|
A|-------------------------------------------------|
D|--1----------1----------1----------1----------1--|

Email me at Crazy_Bane@hotmail.com to tell me how much i suck at bass