Tender Solo (de Blur)
(www.acordesytabs.com)
tender SOLO
BLUR
TABBED BY PAWAN SHRESTHA FROM NEPAL AN ASIAN COUNTRY
EMAIL ME AT pawan_shresthausa.net
 
4^ =  bend
 
^4 = release
 
solo: on 'A' Major Scale
e:---------------------------------------------------------------------------|
B:---------------------------------------------------------------------------|
G:---4^--4^-4^$^4^--^4p2--0--------------------------------------------------|
D:-------------------------------------0h2p0---------------------------------|
A:------------------------------0-h-2----------2-p-0--0----------------------|
E:---------------------------------------------------------------------------|  
 
 
 
 
e:----5----------------------------------------------------------------------|
B:-------5----8---5---7---8--7--5---^6-p-4---0-------------------------------|
G:---------------------------------------------------------------------------|
D:--------------------------------------------------------0h2p0--------------|
A:-------------------------------------------------0-h-2---------2p0---0-----|
E:------------------------------------------[3]------------------------------|  
 

That’s

if u got any suggestions let me know at pawan_shretha@usa.net