I Ll Be There For You (de Bon Jovi)
(www.acordesytabs.com)
#----------------------------------PLEASE NOTE---------------------------------#
#This file is the author's own work and represents their interpretation of the #
#song. You may only use this file for private study, scholarship, or research. #
#------------------------------------------------------------------------------#

Bon Jovi

I'll be there for you

by Brian S.


e-----------------------------------------------------|
b-----------------------------------------------------|
g--5-/7-7-(7)-/9-9-(9)-----/12-12-----1211-11~-------|
d-----------------------0----------0------------------|
a-----------------------------------------------------|
e-----------------------------------------------------|

e-----------------------------------------------------|
b-----------------------------------------------------|
g--5-/7-7----/9-9-(9)-----/12-12---11~~---------------|
d---------0-------------0----------0~~~---------------|
a-----------------------------------------------------|
e-----------------------------------------------------|