In These Arms Solo (de Bon Jovi)
(www.acordesytabs.com)
I took my a while to figure this one out so I hope you appreciate what i have do

E-------------------------------------------------------------------------------
A-------------------------------------------------------------------------------
D----9--11-----------11---------------------------------------------------------
G-----------9--9~-9~----11b-11b-9--11~---9----------12------------12--9---11--9-
B-------------------------------------------13b--9------9h13---9----------------
e-------------------------------------------------------------------------------

E-------------------------------------------------------------------------------
A-------------------------------------------------------------------------------
D-------------------------------------------------------------------------------
G-/13-----------------------------------------------------14--12--14--12--11~---
B-----12h14----------------------------------------14-12------------------------
e-----------12---15b--15b--12--14---/17--15--12h14------------------------------

Then comes the bit where he sings 'these were our words, they keep me strong, Ba
This is the wee guitar bit after it

E-----------------------¦
A-----------------------¦
D-----------------------¦
G---------------11--9~~-¦
B--/14---12--9----------¦
e-----------------------¦

Thats all i have for now any corrections to be made just send to my email addres