One Wild Night (de Bon Jovi)
(www.acordesytabs.com)
V-vibrato
s-slide


E------|---------------------------|------|-------------------
B------|---------------------------|------|-------------------
G---5s-|---------------------------|--3s--|-------------------
D---5s-|---------------------------|--3s--|-------------------
A---3s-|-----1---------------------|--1s--|--1-3v-3v-3-------1----
E------|--3----4--4--3--4--3--1----|------|3------------3-3----3-


E------|---------------------------|------|-------------------
B------|---------------------------|------|-------------------
G---5s-|---------------------------|--3s--|-------------------
D---5s-|--------1v-1v-----1v-------|--3s--|-------------------
A---3s-|--1--3---------3------3--1-|--1s--|--1-3v-3v-3-------1----
E------|---------------------------|------|3------------3-3----3-


E-----
B-----
G---5s
D---5s
A---3s
E-----



The rest is just reapiting, and ill get the solo soon